Chordie logo

Let It Rock   Kevin Rudolf



Kevin Rudolf ft. Lil Wayne - Let it rock

Riff played throughout the whole song

E|-----10-10----12----12-13------10-10----13-12-10---|
B|--10-------10----10---------10-------10------------|
G|---------------------------------------------------|
D|---------------------------------------------------|
A|---------------------------------------------------|
e|---------------------------------------------------|

E|-----10-10----12----10-12------10-10----13-12-10---|
B|--10-------10----10---------10-------10------------|
F|---------------------------------------------------|
D|---------------------------------------------------|
A|---------------------------------------------------|
e|---------------------------------------------------|


Verse & Chorus Guitar Riff:

E|--------------------|
B|--------------------|
G|------------------7-|
D|--3-------5-------7-|
A|--3-------5-------5-|


Important: The song above is NOT stored on the Chordie server. The original song is hosted at www.guitaretab.com. Chordie works as a search engine and provides on-the-fly formatting. Chordie does not index songs against artists/composers will. To remove this song please click here.

This song is displayed as text-only. Transposing and tuning is only available for chordpro-songs.

Login - add to songbook

Rating click stars to rate

Layout
Accuracy

SHARE PAGE  



You need to log in to post comments