Guitar Tabs, Chords and Lyrics


0564   Kid Dynamite



-------------------------------------------------------------------------------
                             K05-0564 - Kid Dynamite
-------------------------------------------------------------------------------


Intro
e|---------------------------------------------------------------------------|
B|---------------------------------------------------------------------------|
G|--------66------66------66------66-----------------------------------------|
D|-----777-----777-----777-----777-------------------------------------------|
A|--777-----555-----000------------------------------------------------------|
E|--------------------------777----------------------------------------------|

Verse
e|---------------------------------------------------------------------------|
B|---------------------------------------------------------------------------|
G|--7----------9---------9--7--2--4------------------------------------------|
D|--7-slide to-9---Then--9--7--2--4------------------------------------------|
A|--5----------7---------7--5--0--2------------------------------------------|
E|---------------------------------------------------------------------------|

Chorus
e|---------------------------------------------------------------------------|
B|---------------------------------------------------------------------------|
G|--6-----7---------------------------------7-----------6---6-7--------=-----|
D|--6--7--7--2---------4 times-then---7--2--7--7--------6-7-6-7--------=-----|
A|--4--7--5--2

Important: The song above is NOT stored on the Chordie server. The original song is hosted at www.guitaretab.com. Chordie works as a search engine and provides on-the-fly formatting. Chordie does not index songs against artists'/composers' will. To remove this song please click here.

This song is displayed as text-only. Transposing and tuning is only available for chordpro-songs.

Login - add to songbook

Rating click stars to rate

Layout
Accuracy

SHARE PAGE  




You need to log in to post comments