Guitar Tabs, Chords and Lyrics


Pacificer   Kid Dynamite



-------------------------------------------------------------------------------
                               PACIFIER - Kid Dynamite		
-------------------------------------------------------------------------------


Intro
e|---------------------------------5-4-2-0-----------------------------------|
B|-------------------------5-5-5-5---------2-4-------------------------------|
G|---------------------------------------------4-----------------------------|
D|--2--7--4--7--9---------------------------------7--9--2--------------------|
A|--2--7--4--7--9--Twice--------------------------7--9--2--------------------|
E|--0--5--2--5--7---------------------------------5--7--0--------------------|

Verse
e|---------------------------------------------------------------------------|
B|---------------------------------------------------------------------------|
G|---------------------------------------------------------------------------|
D|--7--4--2-------4--7-------------------------------------------------------|
A|--7--4--2

Important: The song above is NOT stored on the Chordie server. The original song is hosted at www.guitaretab.com. Chordie works as a search engine and provides on-the-fly formatting. Chordie does not index songs against artists'/composers' will. To remove this song please click here.

This song is displayed as text-only. Transposing and tuning is only available for chordpro-songs.

Login - add to songbook

Rating click stars to rate

Layout
Accuracy

SHARE PAGE  




You need to log in to post comments