Amen

Kid Rock

 FCC2AC3GG2F2
|-x-||-0-||-08-||-0-||-x-||-3-||-x-||-x-|
|-1-||-1-||-08-||-2-||-5-||-0-||-x-||-x-|
|-2-||-0-||-09-||-2-||-5-||-0-||-x-||-x-|
|-3-||-2-||-10-||-2-||-5-||-0-||-5-||-3-|
|-3-||-3-||-xx-||-0-||-3-||-2-||-5-||-3-|
|-0-||-0-||-08-||-x-||-x-||-3-||-3-||-1-|


Intro:

Guitar 1: F-C-F-C-F-C-F-C-F-C-F-C-F-C-F-C


Guitar 2:
0:09
|------------------------------------------|
|------------------------------------------|
|------------------------------------------|
|-5/7--------------------5/7---------------|
|----5b(1.5step)-3------3---5b(1.5step)-3/-|
|------------------3-3-5-------------------|


Guitar 1:

 FC
 It's another night in hell
 FC
Another child won't live to tell
 FCF-C
Can you imagine what it's like to starve to death  
 FC
And as we sit free and well
 FC
Another soldier has to yell
 FCFC
Tell my wife and children I love them in his last breath
 FCFCFCFC
C'mon now a...men, a...men, a...men, a...men

Fill 1: Guitar 2: (with WAH + slight DIST)
(0:30)
|-08-| (Note: Do not fully fret the chord to get the WAH right)
|-08-| ***Listen for "groove" of rhythm***
|-09-|
|-10-|
|-10-|
|-08-| Repeat throughout the 2nd verse & chorus.

 FCFC
 Habitual offenders, scumbag lawyers with agendas
 FCF-C
I'll tell you sometimes people I don't know what's worse  
 FCFC
 Natural disasters or these wolves in sheep clothes pastors
 FCFC
Now God damn it I'm scared to send my children to church
 FCFC
And how can we seek salvation when our nations race relations
 FCF-C
Got me feeling guilty of being white  
 FCFCF
But faith in human nature, our creator and our savior, I'm no saint
 CFC
But I believe in what is right   

Fill 2: Guitar 2: (with WAH)
(1:15)
|-13-12------------13-12------------|
|------15b(1/2)-13------15b(1/2)-13-|
|-----------------------------------|
|-----------------------------------|
|-----------------------------------|
|-----------------------------------|


 FCFC
                  (Guitar 1: Fill 1)
C'mon now a...men, a...men
 FCFC
I said a...men, a....men
(Guitar 1: Fill 1 cont...)

Verse 3:
Guitar 1: Use Fill 1, but rhythm changes with emphasis on high E & B
 FC
Stop pointing fingers and take some blame
 FC
 Pull your future away from the flame
 FCF-C
 Open up your mind and start to live  
 FC
Stop short changing your neighbors
 FC
Living off hand outs and favors, and maybe
 FCFC
 Give a little bit more than you got to give
 FCFC
 Simplify, testify, identify, rectify
 FCFC
And if I get high stop being so uptight  
 FCFC
                          (Fill 2)     
It's only human nature and I am not a stranger
 FCF-C
So baby won't you stay with me tonight 

Fill 3: Guitar 1 is clean (kind of country twang)

|-3h5-3p0--------|
|--------3/1-3/5-|
|----------------|
|----------------|
|----------------|
|----------------|



Chord Progression>>> Guitar 1: A-G2-F2-A-G2

****JUST PRIOR TO SOLO: GUITAR 2 PLAYS FILL 1****

Lead Solo 1: Guitar (3):

|-15-----------------------------------|
|-13-15b17b15-13-13-----13-15b17-15b17-|
|------------------12h14---------------|
|--------------------------------------|
|--------------------------------------|
|--------------------------------------|
|--------------------------------------|
|------13-----13-----13--------13---13-|
|-12h14--12h14--12h14--12-12h14--12-12-|
|--------------------------------------|
|--------------------------------------|
|--------------------------------------|
|----------------------------------------|
|----------------------------------------|
|-------------5---5---5-5--5-5--5-5----5-|
|----------5h7-5h7-5h7--5h7--5h7--5-5-7--|
|----------------------------------------|
|-1/12-12/1------------------------------|
|-------------------------------------|
|-------------------------------------|
|-----------------------------------5-|
|-------------------555---7777-5-7-5--|
|--------333-555-777------------------|
|-333-555-----------------------------|


 G2//////F2/////
It's a matter of salvation from them patience up above,
 G2/////F2/////
So don't give up so damn easy on the one you love, one you love

Guitar 2:

|--------|
|--------|

|-5^^^^^-|
|--------|
|--------|
|--------|


Piano Only (Guitar 1 can play th F-C chords)

Somewhere you got a brother, sister, friend, grandmother, niece or nephew
Just dying to be with you
You know there's someone out there who unconditionally, religiously, loves you
So just hold on 'cause you know it's true
And if you can take the pain
And you can withstand anything, and one day
Stand hand in hand with the truth

I said amen, I said amen
I said amen, I said amen,

Amen

Outro:

Guitar 3:

|-13-13-12-----|
|---------13---|
|-----------12-|
|--------------|
|--------------|
|--------------|X16


Guitar 2:

|-8h10-10-8-8h10-8--------|
|-8h10-10-8-8h10-8--------|
|-----------------7-5---5-|
|--------------------5h7--|
|-------------------------|
|-------------------------|X8


Please, don't hesitate to develop this tab... PEACE, Jeff

A C C2 C3 F F2 G G2
variations - click chord images
Transpose chords:
Tuning:
Cool service:
View: Size:
A  A  A
Rating:
Layout:
  • Currently 3.4/5 Stars.
  • 1
  • 2
  • 3
  • 4
  • 5
 
Accuracy:
  • Currently 2.9/5 Stars.
  • 1
  • 2
  • 3
  • 4
  • 5
 
click stars to rate
Chordie recommends:
Get acoustic guitar lessons and electric guitar lessons at JamPlay.com
Songbook:
Login to add this song to your songbook
Support the artist
Preview/buy this song
MSN Music
Why this non-profit ad?

 
login to add comments/video/corrections