eToCache5 = ""; ?> Picture by Kid Rock - guitar chords, guitar tabs and lyrics - chordie

Picture

Kid Rock

e|-3-3-----3-------|          

B|-3---3-----3---3-|
G|-0---------------|
D|-0---------------|
A|-2---------------|
E|-3-----3-----3---|
Kid Rock:
 GC
 Living my life in a slow hell.  Different girl every night at the hotel
 DGsus
 I ain't seen the sunshine in 3 damn days.
 GC
 Been fueling up on cocaine and whiskey. Wish I had a good girl to miss me.
 DGsus
 Lord I wonder if I'll ever change my ways

Kid Rock's Chorus:
 CGsus
I put your picture away.  Sat down and cried today
 DEmG
I can't look at you, I'm lying next to her.
 CGsus
I put your picture away.  Sat down and cried today.
 DEmG
I can't look at you, I'm lying next to her.

Sheryl Crow:
 GC
called you last night in the hotel.  Everyone knows but they won't tell
 DCGsus
 But their half hearted smiles.  Tell me something just ain't right
 GC
 I've been waiting on you for a long time.  Fueling up my heartaches on cheap wine
 DGsus
 I ain't heard from you in 3 damn nights.

Sheryl Crow's Chorus:
 CGsus
I put your picture away.  I wonder where you've been
 DEmG
I can't look at you while I'm lying next to him.
 CGsus
I put your picture away.  I wonder where you've been
 DEmG
I can't look at you while I'm lying next to him.

Solo: (Sheryl Crow plays-G C D)

-Mild Dist.

E---------------|--------|-----------------|-----------------|
B---------------|--------|7--8--7----------|7--8--7----------|
G---------------|------5-|---------9--7----|---------9--7----|
D---------------|---5--5-|---------------9-|---------------9-|
A-------------5-|7-------|-----------------|-----------------|
E--3--3--5-7----|--------|-----------------|-----------------|
E--7--8--7--------------10----------|14--15--14------------|----15-----------|
B-----------10--8--10b12--12br10--8-|------------15b17--15-|--------15--15---|
G-----------------------------------|----------------------|16----------14b16|
D-----------------------------------|----------------------|-----------------|
A-----------------------------------|----------------------|-----------------|
E-----------------------------------|----------------------|-----------------|
E------------|-------|--------------|------------|
B------------|-------|--------------|3--3------3-|
G--12h14--12-|7h9--7-|4--2--0--2--0-|2--2b4r2--0-|
D------------|-------|--------------|------------|
A------------|-------|--------------|------------|
E------------|-------|--------------|------------|


 G
Sheryl:I saw you yesterday with an old friend
 C
Kid:It was the same ole same how have you been
 DGsus
Both:Since you been gone my worlds been dark and gray
 G
Kid:You reminded me of brighter days
 C
Sheryl:I hoped you were coming home to stay
 D
Sheryl:I was heading to church
 Gsus
Kid:I was off to drink you away
 GC
Both: I thought about you for a long time.  Can't seem to get you off my mind
 DGsus
 I can't understand why we're living life this way

Both Chorus:
 EmGsus
I found your picture today.  I swear I'll change my ways
 DEmG
I just called to say I want you To come back home
 EmGsus
 I found your picture today.  I swear I'll change my ways
 DEmG
I just called to say I want you to come back home
 DCGsus
I just called to say I love you come back home


C D Em G Gsus
variations - click chord images
Transpose chords:
Tuning:
Cool service:
View: Size:
A  A  A
Rating:
Layout:
  • Currently 2/5 Stars.
  • 1
  • 2
  • 3
  • 4
  • 5
 
Accuracy:
  • Currently 2.7/5 Stars.
  • 1
  • 2
  • 3
  • 4
  • 5
 
click stars to rate
Chordie recommends:
Check out these online guitar lessons
Songbook:
Login to add this song to your songbook
Support the artist
Preview/buy this song
MSN Music
Why this non-profit ad?

 
login to add comments/video/corrections