Guitar Tabs, Chords and Lyrics


A Great Big Sled  Killers

Am:   0-0-2-2-1-0--|


Ab5:  4-6-6-x-x-x--|


Bm:   x-2-4-4-3-2--|

C: 0-3-2-0-1-0--|
C5: x-3-5-5-x-x--|
Dm: x-0-0-2-3-1--|
E: 0-2-2-1-0-0--|
Em: 0-2-2-0-0-0--|
F: 1-3-3-2-1-1--|
F5: 1-3-3-x-x-x--|
G: 3-2-0-0-3-3--|
G: 3-5-5-4-3-3--|
G5: 3-5-5-x-x-x--|
Gmaj: 7-10-9-7-8-7-|
[F]  [G]  [C]  [F]  [Em]   [Dm]                          
e----------------------------------------------------------------------17-15--|
B----------15-17-15-------------15-17-15----------15-17-15----------15--------|
G-17----17----------17-17----17----------17----17----------17----17-----------|
D----17-------------------17----------------15----------------15--------------|
A-----------------------------------------------------------------------------|
E-----------------------------------------------------------------------------|
e----------------------------------------------------------------------15-13--|
B----------15-17-15-------------15-17-15-------------15-------------15--------|
G-17----17----------17-17----17----------16----16-17----17-16----16-----------|
D----17-------------------17----------------17----------------17--------------|
A-----------------------------------------------------------------------------|
E-----------------------------------------------------------------------------|


Verse 1:

The snowman is shaping up to be an eight, but not out of ten
The [C5]robots awake to find out they've been taped down [G5]wondering when
[Am]They'll break through these chains,
[F]but little boys have action toys for [C]brains
I'm living proof it can l[G]ast a long time
[C5]Now the girls up the street are innocent and sweet
well they're [F5]all in bed
They got their [C5]makeup and dreams of wonderland
sprinkled i[G5]nside their heads
   [Am]                                [F]                                                   
e--0----------------------0--------1--|
B--1---------------1---------------1--|
G--2-----------------2-------2-----2--|
D--2-------------------2-------2---3--|
A--0-------------------------------3--|
E----------------------------------1--|


Soon they will change,
but [F]tonight Hollywood Hills never seemed so s[C]trange

                             [G]                                                         
e----------------------------3--|
B--------1------1------------3--|
G------0--0---0---0----------0--|
D--2h3------2----------------0--|
A----------------------------2--|
E----------------------------3--|


Their mother's praying it'll last a long time

Chorus 1:
I wanna roll [C]around like a [F]kid in the [Em]snow
[G]I wa[Ab5]nna [Am]relearn what I [F]already [Em]know
[G]Just let me take f[F]light
dressed in [G]red through the [C]night on a [F]great [Em]big [Dm]sled
I wanna wish you Merry [C5]Christmas... Ho Ho Ho

e-------------------------------17-15--|
B----------15-17-15----------15--------|
G-17----17----------17----17-----------|
D----17----------------17--------------|
A--------------------------------------|
E--------------------------------------|


Verse 2:
Now the [C]boys are all grown up
out there working their [F]fingers to the bone
they go[C] around chasing them girls on the weekend
you know they still [G]can't be alone

         [Am]                                                                            
e---------0------------------------------0-------|
B---------1-----------------------1--------------|
G---------2-------------------------2-------2----|
D---------2---------------------------2-------2--|
A---------0--------------------------------------|
E------------------------------------------------|


I've been racking my brain with thoughts of peace and love
[F]how on Earth did we get so mixed [C]up
                        [G]                                                             
e-----------------------3--|
B--------1------1-------3--|
G------0--0---0---0-----0--|
D--2h3------2-----------0--|
A-----------------------2--|
E-----------------------3--|

I pray to God it don't last a long time

Chorus 2:
I wanna roll [C]around like a [F]kid in the [Em]snow
[G]I wa[Ab5]nna [Am]relearn what I [F]already [Em]know
[G]Just let me take f[F]light
dressed in [G]red through the [C]night on a [F]great [Em]big [Am]sled

Bridge: (sung by Toni Halliday)

[Am]I hear the sound of bells
                               [Dm]                                                      
e----------0--------------0----1--|
B--1---1-3---3-1--1---1-3---3--3--|
G----2--------------2----------2--|
D------------------------------0--|
A---------------------------------|
E---------------------------------|


[Dm]There's something on the roof
G (upstroke)
e----------0--------------0----3--|
B--1---1-3---3-1--1---1-3---3--3--|
G----2--------------2----------0--|
D------------------------------0--|
A------------------------------2--|
E------------------------------3--|


  [G]                               [E]        [Am]      [Bm]      [Dm]                                
e-3-----------0-------------0----0-------0-----2-----1--|
B-3---0---0--3--3-0-0---0-3---3--0-------1-----3-----3--|
G-0-----0-------------0----------1-------2-----4-----2--|
D-0------------------------------2-------2-----4-----0--|
A-2------------------------------2-------0-----2--------|
E-3------------------------------0----------------------|


I wonder what this night will bring


Chorus 3:
I wanna roll [C]around like a [F]kid in the [Em]snow
(I hear the sound of bells)
[G]I wa[Ab5]nna [Am]relearn what I [F]already [Em]know
(There's something on the roof)
[G]Just let me take f[F]light dressed in [G]red through the [C]night on a [F]great [Em]big [Dm]sled         [Gmaj]
(I wonder what this night will bring)
Outro:

I wanna wish you Merry Christmas (can't do that)
I wanna wish you Merry Christmas (can't do that)

F Em Dm C (final chords played with bass and strings)

Important: The song above is NOT stored on the Chordie server. The original song is hosted at www.guitaretab.com. Chordie works as a search engine and provides on-the-fly formatting. Chordie does not index songs against artists'/composers' will. To remove this song please click here.

Text color:
Chord color:
Chord grids: 
Font size:    
Page size: 

Ab5 Am Bm C C5 Dm E Em F F5 G G5 Gmaj
variations - click chord images

Login - add to songbook

Transpose chords

Tuning

Rating click stars to rate

Layout
Accuracy

SHARE PAGE  




You need to log in to post comments