Guitar Tabs, Chords and Lyrics


Mascara   Heidi Killing



----------------------------------------------------------------------------
			     Mascara- Killing Heidi
----------------------------------------------------------------------------
Tabbed by: Jessica Olds
Email: Jessica_Olds13@hotmail.com

Tuning: Standard

Note: There are 3 guitar parts in this song but this is the part that 
is most prominant. The rhythm is pretty easy to pick up when you listen 
to the song. This is my first tab so hopefully I've set it out easy enough to understand :D

Intro:

e|------------------------------|
B|------------------------------|
G|---7-----4--------------------|x2
D|--7-7---4-4---------7---------|
A|-5-----2------5----7-7--------|
E|-------------3-3--5-----------|

Verse1:
e|------------------------------|
B|------------------------------|
G|---7-----4--------------------|x3
D|--7-7---4-4---------7---------|
A|-5-----2------5----7-7--------|
E|-------------3-3--5-----------|

Stumbling along
Looking at nothing
Because your eyes
Are always on your feet

e|--------------------|
B|--------------------|
G|-7777-4444----------|
D|-7777-4444-5555-777-|
A|-5555-2222-5555-777-|
E|-----------3333-555-|

e|------------------------------|
B|------------------------------|
G|---7-----4--------------------|x3
D|--7-7---4-4---------7---------|
A|-5-----2------5----7-7--------|
E|-------------3-3--5-----------|
If you ever looked up
You'd see the sun
In the morning
You wonder why things are so bleak

e|--------------------|
B|--------------------|
G|-7777-4444----------|
D|-7777-4444-5555-777-|
A|-5555-2222-5555-777-|
E|-----------3333-555-|

Chorus:

e|--------------------------|
B|--------------------------|
G|-7777-44-----77777777777--|x4
D|-7777-44-555-77777777777--|
A|-5555-22-555-55555555555--|
E|---------333--------------|
Boring and old
Are the things you're told
About the outside world
Just wearing black
Won't take care of that
Don't be stupid girl
You're down on your knees
Trying to appease
Somebody's mixed up statement
Coz in not much time
You're beliefs set in lies will be left by the pavement

Verse2:
e|------------------------------|
B|------------------------------|
G|---7-----4--------------------|x3
D|--7-7---4-4---------7---------|
A|-5-----2------5----7-7--------|
E|-------------3-3--5-----------|
Walking
And always talking
But never listening
You just kick back

e|--------------------|
B|--------------------|
G|-7777-4444----------|
D|-7777-4444-5555-777-|
A|-5555-2222-5555-777-|
E|-----------3333-555-|

e|------------------------------|
B|------------------------------|
G|---7-----4--------------------|x3
D|--7-7---4-4---------7---------|
A|-5-----2------5----7-7--------|
E|-------------3-3--5-----------|
How do
You handle
All the bullshit
That gets thrown your way

e|--------------------|
B|--------------------|
G|-7777-4444----------|
D|-7777-4444-5555-777-|
A|-5555-2222-5555-777-|
E|-----------3333-555-|

Chorus2:
e|--------------------------|
B|--------------------------|
G|-7777-44-----77777777777--|x4
D|-7777-44-555-77777777777--|
A|-5555-22-555-55555555555--|
E|---------333--------------|
Boring and old
Are the things you're told
About the outside world
Just wearing black
Won't take care of that
Don't be stupid girl
You're down on your knees
Trying to appease
Somebody's mixed up statement
Coz in not much time
You're beliefs set in lies will be left by the pavement

e|----------------------------|
B|----------------------------|
G|-77777-444444---------------|x3
D|-77777-444444-555555555555--|
A|-55555-222222-555555555555--|
E|--------------333333333333--|
They'll be left by the way

e|--------------|
B|--------------|
G|-77777-444444-|
D|-77777-444444-|
A|-55555-222222-|
E|--------------|

e|------------------------------|
B|------------------------------|
G|---7-----4--------------------|x2
D|--7-7---4-4---------7---------|
A|-5-----2------5----7-7--------|
E|-------------3-3--5-----------|

Verse3:
e|------------------------------|
B|------------------------------|
G|---7-----4--------------------|x3
D|--7-7---4-4---------7---------|
A|-5-----2------5----7-7--------|
E|-------------3-3--5-----------|
I've been
Doing some thinking
About all your preeching
And I don't wanna know

e|--------------------|
B|--------------------|
G|-7777-4444----------|
D|-7777-4444-5555-777-|
A|-5555-2222-5555-777-|
E|-----------3333-555-|

e|------------------------------|
B|------------------------------|
G|---7-----4--------------------|x3
D|--7-7---4-4---------7---------|
A|-5-----2------5----7-7--------|
E|-------------3-3--5-----------|
Coz that's just
Conforming
That is not 
What you wanna be

e|--------------------|
B|--------------------|
G|-7777-4444----------|
D|-7777-4444-5555-777-|
A|-5555-2222-5555-777-|
E|-----------3333-555-|

Chorus3:
e|--------------------------|
B|--------------------------|
G|-7777-44-----77777777777--|x4
D|-7777-44-555-77777777777--|
A|-5555-22-555-55555555555--|
E|---------333--------------|
Boring and old
Are the things you're told
About the outside world
Just wearing black
Won't take care of that
Don't be stupid girl
You're down on your knees
Trying to appease
Somebody's mixed up statement
Coz in not much time
You're beliefs set in lies will be left by the pavement

e|----------------------------|
B|----------------------------|
G|-77777-444444---------------|x4
D|-77777-444444-555555555555--|
A|-55555-222222-555555555555--|
E|--------------333333333333--|
They'll be left by the way
Oh left by the pavement
Oh, don't be so stupid girl
You're in your world
Don't dress in black
Won't take care of that
Don't be
Be so stupid girl

e|--------------------------------------------|
B|--------------------------------------------|
G|-77777-444444--------------77777-444444-----|
D|-77777-444444-555555555555-77777-444444-5---|
A|-55555-222222-555555555555-55555-222222-5---|
E|--------------333333333333--------------3---|


===============================================================================


Important: The song above is NOT stored on the Chordie server. The original song is hosted at www.guitaretab.com. Chordie works as a search engine and provides on-the-fly formatting. Chordie does not index songs against artists/composers will. To remove this song please click here.

This song is displayed as text-only. Transposing and tuning is only available for chordpro-songs.

Login - add to songbook

Rating click stars to rate

Layout
Accuracy

SHARE PAGE  




You need to log in to post comments