Anyday Now

Killjoys

-----ANYDAY NOW--------|

-----THE KILLJOYS------|
-----STARRY---------|

 CD
You've been there once, I've been twice.
 GG/F#D#+
You should take my advice. 
 CD
She's the best that you've had.
 GG/F#D#+
You get violently mad.

Verse Fills (unison bends)
1.
E-------------------------------|
B-13--12--10--8---8-------------|
G-15b-14b-12b-10b-10b--|
D-------------------------------|
A-------------------------------|
E-------------------------------|

2.
E-------------------------------|
B-13--12--10--12--10------------|
G-15b-14b-12b-14b-12b--|
D-------------------------------|
A-------------------------------|
E-------------------------------|


Chorus (Repeat in different places on repeat)
C e#5 D5 G Am
And I can't, seem to watch you fade, away now.
C e#5 D5 G Am
I won't die for you, no way now.
C e#5 D5 G Am C7
Cause the sun'll come through, anyday now. Anyday.

Verse Two
It was hard coming down, left you feeling like a clown.
It was fun for a while, now you're wearing that smile.

Chorus

Guitar Solo
E-------------------------------------|
B-------------------------------------|
G---4--5---5--4-----------4-4---4-----|
D-7--------------7v--5-7------7---7-5-|
A-------------------------------------|
E-------------------------------------|
E---------------2------------------------|
B---------------1------------------------|
G---4--5---5-7--2---/9-7-5---7-7-5--7--4-|
D-7-------------1------------------------|
A----------------------------------------|
E----------------------------------------|
E------------------------------------------------------------|
B------------------------------------------------------------|
G-----5-4-----------------7-5-4--------------12-11-9---------|
D---------7-5-4------0----------7-5-4----------------12-10-9-|
A-0-------------7------------------------10------------------|
E------------------------------------------------------------|
E-----------------|
B-----------------|
G-----------------|
D-13---13--14--16-|
A-----------------|
E-----------------|
E-----------2-----------------|
B-----------1-----5-----------|
G-------7---2--------7--5---7-|
D-7---------1-----------------|
A-----------------------------|
E-----------------------------|


Chorus.
End on G.

Whoop de doo.


C D D#+ G G/F#
variations - click chord images
Transpose chords:
Tuning:
Cool service:
View: Size:
A  A  A
Rating:
Layout:
  • Currently 3.1/5 Stars.
  • 1
  • 2
  • 3
  • 4
  • 5
 
Accuracy:
  • Currently 3/5 Stars.
  • 1
  • 2
  • 3
  • 4
  • 5
 
click stars to rate
Chordie recommends:
Learn to play songs at Jamplay.com with video guitar lessons
Songbook:
Login to add this song to your songbook
Support the artist
Preview/buy this song
MSN Music
Why this non-profit ad?

 
login to add comments/video/corrections