Guitar Tabs, Chords and Lyrics


Soilborn   Killswitch Engage



band: killswitch engage
song: soilborn
album:killswitch engage
     tabber: dicer4
     e-mail: dicer4@msn.com

this is an amazing song, no one has tabed it so i did, this is i would say basiclly 
perfect, theres alot of different riffs so i used lyrics to guide you through the entire song!

h  hammer on
p  pull off
pm palm mute
/  slide up
  slide down

intro gtr. (the continuation after perlude)
d|-------------------------------------|
a|-------------------------------------|
f|-------------------------------------|
c|-------------------------------------|
g|-0~~-5p000000-5p000000---------------|
c|-0~~-5p000000-5p000000---------------|
pm     . ...... . ......

intro verse, gtr.2 joins in after playing the riff above
"time will not stand still. today is the day of salvation..."
d|---------------------------------------|
a|---------------------------------------|
f|---------------------------------------|
c|-7----9----5----7----5----7----3----5--|
g|-5-00-7-00-3-00-5-00-3-00-5-00-1-00-3--|
c|---00---00---00---00---00---00---00----|
pm   ..   ..   ..   ..   ..   ..   ..

intro verse gtr.2 plays this the second time you play this riff
d|-------------------------------------------|
a|-------------------------------------------|
f|-8/9-999--9/12\11-1111-11/121212121212-----|
c|-x/x-xxx--x/x-\x--x-x--x-/x-x-x-x-x-x------|
g|-6/7-777--7/10\9--9-9--9-/101010101010-----|
c|-------------------------------------------|

verse 2 "this is my disposition..."
d|-----------------------------------------------------------|
a|-----------------------------------------------------------|
f|-----------------------------------------------------------|
c|-5/6\5\4------5/6\5\4------5/6\5\4------5/6\5\4------------|
g|-3/4\3\2-0000-3/4\3\2-0000-3/4\3\2-0000-3/4\3\2-00000000---|
c|---------0000---------0000---------0000---------00000000---|
pm         ....         ....         ....         ........

  fill 1 (played during the bass solo)
d|-------------------------------------|
a|-------------------------------------|
f|-------------------------------------|
c|-------------------------------------|
g|-///-0~~-0~~-------------------------|
c|-///-0~~-0~~-------------------------|

bridge one
"time...will not...stand...still..."
d|---------------------------------------|
a|---------------------------------------|
f|---------------------------------------|
c|-----------------------6\5-------------|
g|-0-00-3-00-5-00-3-0035-4\3-------------|
c|-0-00-3-00-5-00-3-0035-----------------|
pm   ..   ..   ..   ....

fill 2
"we are soilborn, we are children..."
d|-----------------------------------------|
a|-----------------------------------------|
f|-----------------------------------------|
c|-----------------------------------------|
g|-----------------------------------------|
c|-555555555-888888888-444444444-111111111-|

fill 3 gtr.2
"...soilborn..."
d|-------------------------------------|
a|-------------------------------------|
f|-------------------------------------|
c|-------------------------------------|
g|-0--00-0---0--00-0-------------------|
c|-0--00-0---0--00-0-------------------|
pm    ..        ..

verse 3 both gtr's grt.2 joins in after playing fill 3
"washed in blood because we are blind..."
d|-------------------------------------------------|
a|-------------------------------------------------|
f|-------------------------------------------------|
c|-7----9----5--------7----9----5----7------9p7----|
g|-5-00-7-00-3-000000-5-00-7-00-3-00-5-0035--------|
c|---00---00---000000---00---00---00---0035--------|
pm   ..   ..   ......   ..   ..   ..   ....

bridge 2, followed by bridge one
"we are the soil born..."
d|---------------------------------------|
a|---------------------------------------|
f|---------------------------------------|
c|-------------6\5-----------------------|
g|-0-3-5-3-035-4\3-----------------------|
c|-0-3-5-3-035---------------------------|
pm . . . . ...

fill 4 during second bass solo
today is the day, of slavation.."
d|-----------------------------0-------|
a|---------------------------0---------|
f|--------------------------0----------|
c|-------------------------------------|
g|-0~~-00-0----00-0~~------------------|
c|-0~~-00-0----00-0~~------------------|
pm     ..      ..


outro
d|---------------------------------------|
a|---------------------------------------|
f|---------------------------------------|
c|------3-------------------3------------|
g|-00-0-1-00-00-00-0---00-0-1-00-00-00---|
c|-00-0---00-00-00-0---00-0---00-00-00---|


Important: The song above is NOT stored on the Chordie server. The original song is hosted at www.guitaretab.com. Chordie works as a search engine and provides on-the-fly formatting. Chordie does not index songs against artists/composers will. To remove this song please click here.

This song is displayed as text-only. Transposing and tuning is only available for chordpro-songs.

Login - add to songbook

Rating click stars to rate

Layout
Accuracy

SHARE PAGE  




You need to log in to post comments