March 25 1998

Kind Of Like Spitting

 CG
|----0--0-0-0------0--0-0-0----------------------------|
|----1--1-1-1------1--1-1-1-----0--0-0-0------0--0-0-0-|
|----0--0-0-0------0--0-0-0-----0--0-0-0------0--0-0-0-|
|----2--2-2-2--0h2-2--2-2-2-----0--0-0-0------0--0-0-0-|
|-3--3--3-3-3--3---3--3-3-3-----2--2-2-2--0h2-2--2-2-2-|
|----------------------------3--3--3-3-3--3---3--3-3-3-|


 AmFm6
-0--0--0-0-0--0--0--0-0-0--1--1--1-1-1--1--1--1-1-1-1-|
-1--1--1-1-1--1--1--1-1-1--3--3--3-3-3--3--3--3-3-3-3-|
-2--2--2-2-2--2--2--2-2-2--1--1--1-1-1--1--1--1-1-1-1-|
-2--2--2-2-2--2--2--2-2-2--3--3--3-3-3--3--3--3-3-3-3-|
-0--0--0-0-0--0--0--0-0-0-----------------------------|
------------------------------------------------------|


For this the basic pattern is that above, but I've indicated where the changes should
In the last section where he repeats, "He was asking for it", you'll notice ^v^v above
lyrics, by this I mean just change the chord each time you reach this point (following the above pattern).

Intro: C, G, Am, Fm6 x2

 CGAm
 What's your interpretation of the course of events that swings by the light at the

 Fm6
 of the fence?

 CGAmFm6
I got in a fight at the team dress show and it always flattered me it came off macho and

 CGAmFm6
 I am a lion, roaring out loud, in my dreams I'm angry, I never touch the ground

 CGAmFm6C
 I feel like I'm flying, somewhere underneath the sheets.    

 CGAmFm6
 I took your bracelet from the bathroom, I've had it ever since we met

 CGAmFm6
 You check your lipstick in the mirror, you sway and swing your hips      

 CGAmFm6
 Head out to the new bad think show at the end of Burnside, at the oh hell used to be the

 C
not all that familiar

 GAmFm6C
with the history of this town, only been here for a short while, and you knew it    

 GAmFm6C
Say you're sick of all the narrow eyes and all the lies and the actors feeding on our hearts

 GAmFm6Fm6
Bleed this one dry, don't talk don't lie.   

 CGAmFm6
 Everyone, is on call, for a job that they hate.

 CGAmFm6
 Check the mirror, check the bathroom, check the toilet, sweep it up with broom.

 CGAmFm6C
 A broom that you, made yourself, from the hangers from the closet down.      

^v^v
He was asking for it (x7)

 Fm6
and you knew it

____________________
I realise that the chords are actually sharpened versions of those chords due to the but
they're just the shapes which I personally find easier to follow. If you have any
questions, andrewbiles@hotmail.com - e-mail me, I haven't used msn in due to people
asking about tabs and then weeks later asking who I was, it annoyed me.


Am C Fm6 G
variations - click chord images
Transpose chords:
Tuning:
Cool service:
View: Size:
A  A  A
Rating:
Layout:
  • Currently 5/5 Stars.
  • 1
  • 2
  • 3
  • 4
  • 5
 
Accuracy:
  • Currently 2/5 Stars.
  • 1
  • 2
  • 3
  • 4
  • 5
 
click stars to rate
Chordie recommends:
Learn to play songs at Jamplay.com with video guitar lessons
Songbook:
Login to add this song to your songbook
Support the artist
Preview/buy this song
MSN Music
Why this non-profit ad?

 
login to add comments/video/corrections