Guitar Tabs, Chords and Lyrics


Cadence And Cascade  King Crimson



|-------|-----------|-------|---------|-------|---------|-------|


|-----0-|----0-0----|-----2-|---2-2---|-------|---------|-----2-|


|-----1-|---1-1-1---|-----2-|--2-2-2--|-----4-|---4-4---|-----2-|


|-------|-----------|-------|---------|-----6-|--6-6-6--|-------|


|---2---|-2-------2-|---4---|-4-----4-|---6---|-6-----6-|---4---|


|-0-----|-----------|-0-----|---------|-0-----|---------|-0-----|


|---9---7---5---|---------|  [do one time as intro, second &


|--------------.|--2-----.|   third times are first verse, then


|---9---8---6---|----2----|   cut to chorus]


|---------------|---------|


|-0---0---0--0-.|------4-.|


|---------------|---------|


|--------4-|--------7-|------------|----------|---------|-------|


|-------0--|-------4--|------5----.|----------|---------|-----5-|


|------1---|------4---|--4-6---4---|--4-----6-|-4-----6-|-4-6---|


|-----2----|-----6----|------------|----7-----|---7-----|-------|


|----------|----------|-----------.|------7---|-----7---|-------|


|-(0)------|-(4)------|------------|----------|---------|-------|


|-------|----------|-9-7-5-|---7---7---7---------|--------------|


|-----5-|----------|-------|--9---9---7--------5-|--------------|


|-4-6---|--(piano)-|-9-8-6-|-9---8---7---6-4-6---|---(piano)----|


|-------|----------|-------|---------------------|--------------|


|-------|----------|-------|---------------------|--------------|


|-------|----------|-------|---------------------|--------------|


|-9-7-5--------|


|--------------|


|-9-8-6--------|  (Now go back to verse, alternating picking


|--------------|   order on arpeggios, etc.  Listen to the


|--------------|   recording for the exact order)


|------------- |

[then, without playing the verse ending, play the bridge as chords (mostly) in
this order:]

(bridge)
[use tbese cbords] 
         [F#min7] __2__         [Amin7]__0__   _[Emin7]_0__   _[Amaj7]_0__
__2__ __1__ __3__ __2__
__2__ __0__ __3__ __1__
__2__ __2__ __0__ __2__
__4__ __0__ __2__ __0__
__2__ __0__ __0__ _____
F#m7 (or Amj7) Am7 Em7 Am7
Caravan hotel where the sequin spell fell, Custom of the game
[F#m7]Cadence oiled in love [Am7]lied hand, Cascade[Em7]
(see below)
kissed his name.
[arpeggiate Amaj7 on first ending, tben for 2nd ending:] 
|-----------|
|--0--------|
|--1--------|   [do verse one more time (instrumental) and cut
|----0------|   into a final, lyrical chorus:
|----2------|
|-----------|

Sad paper courtesan
They knew him just a man.
[fade out with improvised (lots of flute, piano going on) guitar in F#min &
G#minor (I think]
[That's it, hope you enjoy. I've been looking for a TAB for this song for
awhile, I finally had to do it myself]
-Jason Zack

Important: The song above is NOT stored on the Chordie server. The original song is hosted at www.guitaretab.com. Chordie works as a search engine and provides on-the-fly formatting. Chordie does not index songs against artists'/composers' will. To remove this song please click here.

Text color:
Chord color:
Chord grids: 
Font size:    
Page size: 

Am7 Amaj7 Amin7 Em7 Emin7 F#m7 F#min7
variations - click chord images

Login - add to songbook

Transpose chords

Tuning

Rating click stars to rate

Layout
Accuracy

SHARE PAGE  




You need to log in to post comments