Guitar Tabs, Chords and Lyrics


The Curse   King Diamond



King Diamond:  The Curse

transcribed by:  Langus          :  tlange@polbox.com
     edited by:  Russ Elton      :  webmaster@abysslord.com

FIND EVERY MERCYFUL FATE/KING DIAMOND SONG AND
THE MOST UPDATED VERSION OF THIS SONG AT:

                          The Tab Crypt
                  http://abysslord.com/thetabcrypt/

Date last modified:  December 17, 2004

PLEASE DO NOT COPY THIS TAB TO ANOTHER SITE
WITHOUT AUTHORS' PERMISSION.  THANK YOU.

Tuning: Standard

Riff 1 (Play 2x)
E|------------------------------------------|
B|------------------------------------------|
G|------------------------------------------|
D|-9-9---10-9-9---10---12-14-16-14-12-10-12-|
A|-7-7----8-7-7----8---10-12-14-12-10--8-10-|
E|------------------------------------------|

E|----------------------------|
B|----------------------------|
G|----------------------------|
D|-9-9---10-9-9---7---5---7---|
A|-7-7----8-7-7---5---3---5---|
E|----------------------------|

Riff 1a
E|----------------|
B|----------------|
G|----------------|
D|-9-9---10-9-9---|
A|-7-7----8-7-7---|
E|----------------|


Riff 2
E|-------------------------------|
B|-------------------------------|
G|---4-5---9-7-5-4----4-5--9-7-7-|
D|-------------------------------|
A|-0-2-3---7-5-3-2--0-2-3--7-5-5-|
E|-------------------------------|
  "I know what you're thinking..."
E|---------------------------------|
B|---------------------------------|
G|---4-5---9-7-5-4----4-5----------|
D|------------------------(0)------| 

Important: The song above is NOT stored on the Chordie server. The original song is hosted at www.guitaretab.com. Chordie works as a search engine and provides on-the-fly formatting. Chordie does not index songs against artists'/composers' will. To remove this song please click here.

This song is displayed as text-only. Transposing and tuning is only available for chordpro-songs.

Login - add to songbook

Rating click stars to rate

Layout
Accuracy

SHARE PAGE  




You need to log in to post comments