Guitar Tabs, Chords and Lyrics


California Waiting   Kings Of Leon



                             kings of leon 

                           california waiting

 
                                 INTRO


standasrd tunning : e a d g b e 

  G
E -------------------¦-----------------------------------¦
B -------------------¦-----------------------------------¦
G -------------------¦-----------------------------------¦
D -2-------2-0-2-4-2-¦-----------------------------------¦
A --5-(5)/2----------¦-2-2-2-2-2-2-2-2-2-2-2-2-2-2-2-2-O-¦
E -------------------¦-3-3-3-3-3-3-3-3-3-3-3-3-3-3-3-3---¦

  D                   G
E -------------------¦-------------------¦
B -------------------¦-------------------¦
G -------------------¦-------------------¦
D -2-------2-0-2-4-2-¦-2-------2-0-2-4-2-¦
A --5-(5)/O----------¦--5-(5)/2----------¦
E -------------------¦-------------------¦

  D
E ------------------------------------------------¦
B ------------------------------------------------¦
G ------------------------------------------------¦
D ------------------------------------------------¦
A -9--9--9--9--9--9--9--9--9--9--9--9--9--9--9--0-¦
E -10-10-1O-10-10-10-10-10-10-10-10-10-10-10-10---¦
  
  G
E -----------------------------------¦
B -----------------------------------¦
G -----------------------------------¦
D -----------------------------------¦
A -2-2-2-2-2-2-2-2-2-2-2-2-2-2-2-2-0-¦
E -3-3-3-3-3-3-3-3-3-3-3-3-3-3-3-3---¦



Important: The song above is NOT stored on the Chordie server. The original song is hosted at www.guitaretab.com. Chordie works as a search engine and provides on-the-fly formatting. Chordie does not index songs against artists'/composers' will. To remove this song please click here.

This song is displayed as text-only. Transposing and tuning is only available for chordpro-songs.

Login - add to songbook

Rating click stars to rate

Layout
Accuracy

SHARE PAGE  




You need to log in to post comments