Guitar Tabs, Chords and Lyrics


Never Met A Girl Like You Before  Kinks

|-------------------6-3--|-------------------------|


|----4-6/8\6-4-----4-----|----4-6/8\6-4-----3------|


|--5-----------5-5-------|--5-----------5-5---3-6--|

|------------------------|-------------------------|
|------------------------|-------------------------|
|------------------------|-------------------------|
YOU'VE [Cm]MADE ME ...            [Gm]
I [Cm]HOPE TO GOD I'M ...         [Gm]
I [Cm]HOPE THAT I'M ..          [Gm]
[Cm]KNOW THAT I'M TALKING `...      [Gm]
Cm Fm Gm Cm, Fm, Cm
AND I'VE NEVER ...
[Cm]NEVER, NEVER ,[Fm]....   [Gm]
Cm Fm Gm Cm, Fm, Cm
NEVER KNOWN A ....


SOLO2
|------6-8--|--10-11-13--|---------------|---------------------------|
|----4------|------------|----4-6-4-6^«.....6-4---4---------3-----4--|
|--5--------|------------|--5------------|------5---5-3---3---3-5----|
|-----------|------------|---------------|--------------5------------|
|-----------|------------|---------------|---------------------------|
|-----------|------------|---------------|---------------------------| 


BRIDGE2 (SAME CHORDS AS IN BRIDGE1)

THIS OLD TOWN HAS .....


[Cm]         [Fm]       [Gm]       [Cm]                                               
  YES ALLRIGHT, ....<------------ SOLO ON TOP OF ALL THIS  

[Cm]         [Fm]       [Gm]       [Cm]                                               
  YES ALLRIGHT, ....<-------------/

REPEAT

Important: The song above is NOT stored on the Chordie server. The original song is hosted at www.guitaretab.com. Chordie works as a search engine and provides on-the-fly formatting. Chordie does not index songs against artists'/composers' will. To remove this song please click here.

Text color:
Chord color:
Chord grids: 
Font size:    
Page size: 

Cm Fm Gm
variations - click chord images

Login - add to songbook

Transpose chords

Tuning

Rating click stars to rate

Layout
Accuracy

SHARE PAGE  




You need to log in to post comments