Guitar Tabs, Chords and Lyrics


Till The End Of The Day  Kinks

[F]    [1]  [3]  [3]  [2]  [1]  [1]                       

Intro:

D-C-A...

Baby I feel [C]go[D]od[F]  [C]  [D]
From the moment I a[C]rr[D]iv[F]e [C]  [D]
Feel good from [C]morn[D]ing [F]
Till the [C]end of the [C]da[D]y [F]  [C]  [D]
Till the end of the [C]da[D]y [F]  [C]  [D]

Yeah, [D]you and [C]me    [F]
[C]We live this [D]life   [C]       [F]      [C]
From [D]when we get up [C]
Till we go sleep at [F]night[A]
[D]You and me we're[C] free
[F]We do as we [C]please, yeah
From [C]mor[D]nin[F]g, till the [C]end of the [C]da[D]y [F]  [C]  [D]
Till the end of the [C]da[D]y [F]  [C]  [D]
Yeah, [D]I get [C]up  [F]
And [C]I see the [D]sun up[C]     [F]    [C]
And [D]I feel good,[C] yeah[F]
cause my [C]life has be[F]gun   [A]
[D]You and me we're[C] free
[F]We do as we [C]please, yeah
From [C]mor[D]nin[F]g, till the [C]end of the [D]day     [C]
Till the end of the [D]day      [C]
Till the end of the [D]day      [C]
Till the end of the [D]day      [C]
e|----10--8/10--10--10--10\8---10--8---15\13---17---17\10\13---8/10---10-|
B|-----------------------------------------------------------------------|
G|-----------------------------------------------------------------------|
D|-----------------------------------------------------------------------|
A|-----------------------------------------------------------------------|
E|-----------------------------------------------------------------------|
e|--10\8-----------------------------------------------------------------|
B|---------10-------6-----10----10--10\3---6--3--8-------------6-3--6----|
G|--------------7---------------------------------------5/7--------------|
D|-----------------------------------------------------------------------|
A|-----------------------------------------------------------------------|
E|-----------------------------------------------------------------------|
e|-8--10--15--13--10-----------------------------------------------------|
B|-----------------------------------------------------------------------|
G|-----------------------------------------------------------------------|
D|-----------------------------------------------------------------------|
A|-----------------------------------------------------------------------|
E|-----------------------------------------------------------------------|


[D]You and me we're[C] free
[F]We do as we [C]please, yeah
From [C]mor[D]nin[F]g, till the [C]end of the [D]day     [C]
Till the end of the [D]day      [C]
Till the end of the [D]day      [C]
Till the end of the [D]day      [C]
Till the end of the [D]day      [C]
Till the end of the [D]day      [C]      [B]     [A]     [D]

Important: The song above is NOT stored on the Chordie server. The original song is hosted at www.guitaretab.com. Chordie works as a search engine and provides on-the-fly formatting. Chordie does not index songs against artists'/composers' will. To remove this song please click here.

Text color:
Chord color:
Chord grids: 
Font size:    
Page size: 

A B C D F
variations - click chord images

Login - add to songbook

Transpose chords

Tuning

Rating click stars to rate

Layout
Accuracy

SHARE PAGE  




You need to log in to post comments