Chordie logo


You Really Got Me   Kinks



You Really Got me
The Kinks

this song is dead easy, listen to the recording for rhythm and timing (especially for the solo)...
have fun

play these riffs in order as follows:


1.
e|-----------------------|
B|-----------------------|
G|-----------   Repeat 1-|2x
D|-----------------------|
A|-3--5-5-3-5------------|
E|-1--3-3-1-5------------|


2.
e|---------------|
B|---------------|
G|---------------|
D|---2-2---2-----|   Repeat 4x
A|---0-0---0-----|
E|-3-----3-------|


3.
e|------------------|
B|------------------|
G|---2-2---2--------|    Repeat 6x
D|---0-0---0--------|
A|-3-----3----------|
E|------------------|


4.
e|--------0---------|
B|--------1---------|
G|--------0---------|    Hold for 7 counts
D|--------2---------|
A|--------3---------|
E|------------------|


Solo
e|-------------------------------------------------------------------|
B|--1-1-1-1-1-1-1---1-3-----1-3----------------------1-3-------------|
G|----------------------3-0-----3-0--3-0-3-0-3-0-3-0-----3-0-3-0-3-0-|
D|-------------------------------------------------------------------|
A|-------------------------------------------------------------------|
E|-------------------------------------------------------------------|

e|--3-3-3---3-1-----------------------------------------------------|
B|-------------------------1-3-1-----2-1----------------------------|
G|-------------3-0-3-0-3-0--------3------3--0--0--0--3--0-0---------|
D|--------------------------------------------3--3--3----3----------|
A|------------------------------------------------------------------|
E|------------------------------------------------------------------|


Coda
e|------------|
B|------------|
G|-2--2--2--2-|
D|-0--0--0--0-|
A|------------|
E|------------|

THE END

**this tab doesnt follow the song exactly. If you want to play it exact, go back to 
after the C chord then second time through play solo then go back to start after solo and 
play the coda**

queries? concerns?...


Important: The song above is NOT stored on the Chordie server. The original song is hosted at www.guitaretab.com. Chordie works as a search engine and provides on-the-fly formatting. Chordie does not index songs against artists/composers will. To remove this song please click here.

This song is displayed as text-only. Transposing and tuning is only available for chordpro-songs.

Login - add to songbook

Rating click stars to rate

Layout
Accuracy

SHARE PAGE  




You need to log in to post comments