Chordie logo

Go Gava Rock N Roll To You   Kiss



Any Questions? Email me: Guitar_man191@hotmail.com

Tune 1/2 Step Down

Key:
/    = slide up
\    = slide down
b    = bend (whole step)
b^   = bend (1/2 step)
b^^  = bend (1 1/2 steps)
pb   = pre-bend
r    = release-bend
t^   = tap with righthand finger
h    = hammer-on
p    = pull-off
~    = Vibrato
*    = Natural Harmonic

**   = Artificial Harmonic
x    = Dead notes (no pitch)
P.M. = Palm mute (- -> underneath indicates which notes)
(\)  = Dive w\bar
(/)  = Release w\bar
Tp   = Tap w\plectrum

Solo 1
                                                                                             
Eb|----------------------------------------------------------------------|
Bb|------------14b^14r14b^14r-----------14----17b17-17b17-14---17~---15~-|
Gb|-------14-----------------14---16-------------------------------------|
Db|-14-------------------------------------------------------------------|
Ab|----------------------------------------------------------------------|
Eb|----------------------------------------------------------------------|


Eb|-----------------------------------------------------------14-15~--14-|
Bb|---------------14b^14-14b^14----------17-17--------14-15-17-----------|
Gb|------14b-14r----------------14--16----------14-16--------------------|
Db|-14-------------------------------------------------------------------|
Ab|----------------------------------------------------------------------|
Eb|----------------------------------------------------------------------|


Eb|--13---12-------------------------------------------------------------|
Bb|--16b--15b----------------------------------13-----------14-----------|
Gb|-------------14p12----------------14p12---------14p12--------14p12----|
Db|-------------------14-13-12-------------14------------14-----------14-|
Ab|----------------------------15-12-------------------------------------|
Eb|----------------------------------------------------------------------|

                  
Eb|----------------------------------------------------------------------|
Bb|--15------------------------------------------------------------------|
Gb|------14--------------------------------------------------------------|
Db|----------16----------------------------------------------------------|
Ab|--------------17-------------5**--5**--5**--5**-----------------------|
Eb|----------------------------------------------------------------------|


Solo 2
                                                                               
Eb|----------------------------------------------------------------------|
Bb|----------------------------------14b^14r14b^14r----------------------|
Gb|----------------------------14-------------------14-------------------|
Db|--------------------14------------------------------------------------|
Ab|----------------------------------------------------------------------|
Eb|------------------------------------------------------12------10------|

                                                                                         
Eb|-------------------------------17-17----------------------------------|
Bb|--------17b17-17b17-14----17-----------------------14-15--15b-----15--|

Gb|---------------------------------------------14-16--------------------|
Db|---------------------------------------14-16--------------------------|
Ab|----------------------------------------------------------------------|
Eb|----------------------------------------------------------------------|


Important: The song above is NOT stored on the Chordie server. The original song is hosted at www.guitaretab.com. Chordie works as a search engine and provides on-the-fly formatting. Chordie does not index songs against artists/composers will. To remove this song please click here.

This song is displayed as text-only. Transposing and tuning is only available for chordpro-songs.

Login - add to songbook

Rating click stars to rate

Layout
Accuracy

SHARE PAGE  



You need to log in to post comments