Guitar Tabs, Chords and Lyrics


Any Way You Want It   Kiss


-------------------



Eb|----------------------------------------------------|



Bb|----------------------------------------------------|



Gb|--2-2---2-2-2---------------------------------------|



Db|--2-2---2-2-2---------------------------------------|



Ab|--0-0---0-0-0---------------------------------------|



Eb|----------------------------------------------------|



     



Eb|----------------------------------------------------|



Bb|----------------------------------------------------|



Gb|-2-2--2-2-2---------------------2-2--2-2-2----------|



Db|-2-2--2-2-2-----4-4--4-4-4-4----2-2--2-2-2----4-----|



Ab|-0-0--0-0-0-----4-4--4-4-4-4----0-0--0-0-0----4-----|



Eb|----------------2-2--2-2-2-2------------------2-----|



    



Eb|----------------------------------------------------|



Bb|----------------------------------------------------|



Gb|-2-2--2-2-2---------------------7-7-7-7--9-9-9-9----|



Db|-2-2--2-2-2-----4-4--4-4-4-4----7-7-7-7--9-9-9-9----|



Ab|-0-0--0-0-0-----4-4--4-4-4-4----5-5-5-5--7-7-7-7----|



Eb|----------------2-2--2-2-2-2------------------------|



    



Eb|----------|---------------------|-------------------|



Bb|----------|---------------------|-------------------|



Gb|-2-2-2-2--|---------------------|--2-2-2-2----------|



Db|-2-2-2-2--|-2-2-2-2-2-2-2-2-2---|--2-2-2-2----------|



Ab|-0-0-0-0--|-2-2-2-2-2-2-2-2-2---|--0-0-0-0----------|



Eb|----------|-0-0-0-0-0-0-0-0-0---|-------------------|



Eb|----------------------------------------------------|



Bb|------------------------------0---------------------|



Gb|-7-7--9-9--2-2-2-2---2-2-2-2--2---------------------|



Db|-7-7--9-9--2-2-2-2---2-2-2-2--2---------------------|



Ab|-5-5--7-7--0-0-0-0---0-0-0-0--0---------------------|



Eb|----------------------------------------------------|



    



Eb|----------------------------------------------------|



Bb|----------------------------------------------------|



Gb|--7-7-7-7--7-7-7-7----------------------------------|



Db|--7-7-7-7--7-7-7-7---7-7-7-7--6-7-7-7--6-7-7--------|



Ab|--5-5-5-5--5-5-5-5---7-7-7-7--6-7-7-7--6-7-7--------|



Eb|---------------------5-5-5-5--4\5-5-5--4\5-5--------|



Eb|----------------------------------------------------|



Bb|----------------------------------------------------|



Gb|--7-7-7-7--7-7-7-7---4-4-4-4---9-9-9-9-9-9-9-9------|



Db|--7-7-7-7--7-7-7-7---4-4-4-4---9-9-9-9-9-9-9-9------|



Ab|--5-5-5-5--5-5-5-5---2-2-2-2---7-7-7-7-7-7-7-7------|



Eb|----------------------------------------------------|



                           



Important: The song above is NOT stored on the Chordie server. The original song is hosted at www.guitaretab.com. Chordie works as a search engine and provides on-the-fly formatting. Chordie does not index songs against artists/composers will. To remove this song please click here.

This song is displayed as text-only. Transposing and tuning is only available for chordpro-songs.

Login - add to songbook

Rating click stars to rate

Layout
Accuracy

SHARE PAGE  




You need to log in to post comments