Guitar Tabs, Chords and Lyrics


I Was Made For Lovin You  Kiss

-------------------------------



    -2- --3-  -2- --3-   -2- --3-  -2- --3-

E|----------|---------|----------|---------|
B|-8-6-88-6-|---------|-8-6-88-6-|---------|
G|-7-7-77-7-|5-3-77-5-|-7-7-77-7-|5-3-77-5-|
D|----------|5-5-77-5-|----------|5-5-77-5-|
A|----------|---------|----------|---------|
E|----------|---------|----------|---------|
[D]Tonight I wanna give it all [F]to you
pm--------------------------------

In the [A]darkness
---------------

Theres so much [D]I wanna do
-------------------------

And [D]tonight I wanna lay it at [F]your feet
---------------------------------------

cause girl, I [A]was made for you
------------------------------

And girl, you [G]were made for me.
----------------------------pm|

____________________________________________________________________________
Main riff when it is singing like this.

I was made for lovin you baby
You were made for lovin me
And I cant get enough of you baby
Can you get enough of me
____________________________________________________________________________
Vers2.(Power chords)
[E]Tonight I wanna see it in your [F]eyes
pm---------------------------------

Feel the [A]magic
--------------

Theres something that [D]drives me wild
------------------------------------

And [D]tonight were gonna make it all [F]come true
--------------------------------------------

cause girl, you were [A]made for me
--------------------------------

And girl I was [G]made for you.
-------------------------pm|

____________________________________________________________________________
And the main riff again to.

I was made for lovin you baby
You were made for lovin me
And I cant get enough of you baby
Can you get enough of me

I was made for lovin you baby
You were made for lovin me
And I can give it all to you baby
Can you give it all to me
____________________________________________________________________________
Bridge
Oh, cant get enough, oh, oh
I cant get enough, oh, oh
I cant get enough
Yeah, ha

brige tab
 E|---------------------------|                          E|---------|
 B|---------------------------|                          B|---------|
 G|---------------------------|Do that to end of singing|G|---------|
 D|3hl-----5hl----55-7hl--5-3-|then the sing is end you| D|2-2222222|
 A|1hl-----3hl----33-5hl--3-1-|do this.                  A|0-0000000|
 E|---------------------------|                          E|---------|

____________________________________________________________________________
Main riff 1 time and continue when lyrics coming.

Do, do, do, do, do, do, do, do, do
Do, do, do, do, do, do, do
Do, do, do, do, do, do, do, do, do
Do, do, do, do, do, do, do

I was made for lovin you baby
You were made for lovin me
And I cant get enough of you baby
Can you get enough of me

Oh, I was made, you were made
I cant get enough
No, I cant get enough

I was made for lovin you baby
You were made for lovin me
And I cant get enough of you baby
Can you get enough of me

I was made for lovin you baby
You were made for lovin me
And I can give it all to you baby
____________________________________________________________________________

Important: The song above is NOT stored on the Chordie server. The original song is hosted at www.guitaretab.com. Chordie works as a search engine and provides on-the-fly formatting. Chordie does not index songs against artists/composers will. To remove this song please click here.

Text color:
Chord color:
Chord grids: 
Font size:    
Page size: 

A D E F G
variations - click chord images

Login - add to songbook

Transpose chords

Tuning

Rating click stars to rate

Layout
Accuracy

SHARE PAGE  




You need to log in to post comments