Chordie logo

Doomsday   Kisschasy



Intro
E|---------------------------|
B|---------------------------|
G|--1-1-1-2-2-2-------2-2-2--|
D|--2-2-2-2-2-2-4-4-4-2-2-2--|
A|--2-2-2-0-0-0-4-4-4-0-0-0--|
E|--------------2-2-2--------|
"into the sun"
E|---0----0-----0-|
B|--0-0--0-0---0--|
G|----------------|
D|-2----------0---|
A|------2---------|


Important: The song above is NOT stored on the Chordie server. The original song is hosted at www.guitaretab.com. Chordie works as a search engine and provides on-the-fly formatting. Chordie does not index songs against artists/composers will. To remove this song please click here.

This song is displayed as text-only. Transposing and tuning is only available for chordpro-songs.

Login - add to songbook

Rating click stars to rate

Layout
Accuracy

SHARE PAGE  



You need to log in to post comments