Chordie logo


A Love Affair With Distance   Kisschasy



Intro/verse 1
|----2------2------2------2-4-2--|
|---0------0------0------0-------|
|--3------3------3------3--------|
|--------------------------------|
|--------------------------------|
|--------------------------------|


Chorus
both guitars "so I force a smile, i take the stage...."
|---------------------------|
|---------------------------|
|---------------------------|
|--------------4~-----------|
|--6~----2~----2~-----4~----|
|--4~----0~-----------2~----|x1


|--------------------------------------=--------------------|
|-----------------------------------------------------------|
|-----------------------------------------------------------|
|------------------------------4-4-4-4-4-4-4----------------|
|--6-6-6-6-6-6-6-2-2-2-2-2-2-2-2-2-2-2-2-2-2-4-4-4-4-4-4-4--|
|--4-4-4-4-4-4-4-0-0-0-0-0-0-0---------------2-2-2-2-2-2-2--|

(pickin up)
|---2------2-----4-----4-----7-----7-----6-----6------------|
|------0------0-----0-----0-----0-----0-----0-----0---------|
|---------4------4-----4-----4-----4-----4-----4-----4------|
|------------------------------------------------------XXX--|
|------------------------------------------------------XXX--|
|------------------------------------------------------XXX--|


Riff after chorus (both guitars)
|-----------------------------------|
|-----------------------------------|
|-----------------------------------|
|--------44-44---------------44-44--|
|--2~----11-22-6-6-6-6-6-2~--11-22--|
|--0~----------4-4-4-4-4-0~---------|


Verse 2

|----------------------------------------|--|
|----------------------------------------|--|
|----------------------------------------|--|
|--------------4-6----4------------------|--|
|--6----4-2----2-4----2-2----2-4----4/6--|--|
|--4----2-0-------------0----0-2----2/4--|--|
   **play chord changes quickly**

|----------------------------------------|------------------------------------------------|
|----------------------------------------|------------------------------------------------|
|----------------------------------------|------------------------------------------------|
|----------------------------------------|-------------------------6666666666-------------|
|----------------------------------------|--66666666666-2222222222-4444444444-2222224444--|
|----------------------------------------|--44444444444-0000000000------------0000002222--|

pm..............................................


Bridge
E5  F#5  Ab5


Little lead bit
e|--------7-------|


Important: The song above is NOT stored on the Chordie server. The original song is hosted at www.guitaretab.com. Chordie works as a search engine and provides on-the-fly formatting. Chordie does not index songs against artists/composers will. To remove this song please click here.

This song is displayed as text-only. Transposing and tuning is only available for chordpro-songs.

Login - add to songbook

Rating click stars to rate

Layout
Accuracy

SHARE PAGE  




You need to log in to post comments