Chordie logo


Real Untounched   Kisschasy



Artist:Kisschasy
Song: Real & Untouched
Tabbed by Dale Townsend

Intro
E|-------------------------------|
B|-------------------------------|
G|-------------------------------|
D|-------------------------------|
A|4-4-4-4--------6-6-6-6---------|
E|--------4-4-4-4--------4-4-6-6-|

Verse
E|-------------------------------|
B|-------------------------------|
G|-------------------------------|
D|-------------------------------|
A|4-4-4-4--------6-6-6-6---------|
E|--------4-4-4-4--------4-4-6-6-|

Lead Verse
E|---------7-7---------7-7--------7-7-------4-4-|
B|---------7-7---------7-7--------7-7-------4-4-|
G|----------------------------------------------|
D|----------------------------------------------|
A|----------------------------------------------|
E|----------------------------------------------|

Chorus
E|------------------|
B|------------------|
G|----------------6-|
D|8-8-----4-4-----6-|
A|8-8-----4-4-----4-|


Important: The song above is NOT stored on the Chordie server. The original song is hosted at www.guitaretab.com. Chordie works as a search engine and provides on-the-fly formatting. Chordie does not index songs against artists/composers will. To remove this song please click here.

This song is displayed as text-only. Transposing and tuning is only available for chordpro-songs.

Login - add to songbook

Rating click stars to rate

Layout
Accuracy

SHARE PAGE  




You need to log in to post comments