Guitar Tabs, Chords and Lyrics


Around Your Heart   Kittie



well this is a song i thot i would tab out because it is a beautiful and great 
voice is killer in this one..

im not sure if the intro is just one guitar or 2 gtrs but im sure kittie uses atleast 3 
4 dif gtrs in their music and then just re does it in concert to make it sound better

Intro~~~~~~~~~~~~~~~~~~~~~~~~~~~~~~~~~~~~~~~~~~~~~~~~x2
d--------------------------|---------------------------|-------------------|
a--------------------------|---------------------------|-------------------|
f--------------------------|---------------------------|-------------------|
c--------------------------|---------------------------|-------------------|
g--------------------------|---------------------------|-------------------|
c-5-8-8-7-7-3-3-5-55555555-|-5-8-8-7-7-3-3-1-111111111-|-5-8-8-7-7-3-3-5---|
                  PM------                   PM----------------------------|

on this part the verse im not sure of the pm'd note i think i just heard wrong..

 Verse~~~~~~~~~~~~~~~~~~~~~~~~~~~~~~~~~~~~~~~~~~~~~~~~~~~~~~~~~~~~
d-------------------|-----------------------------------------------|
a-------------------|-----------------------------------------------|
f-------------------|-----------------------------------------------|
c-------1-1---1-1-1-|-----------------------------------------------|
g-5-5---1-1---1-1-1-|---------------------5----------1----1---------|
c-5-5---1-1---1-1-1-|-8-8-7-7-3-3-5-55555555555555555111111111111---|
             PM                     PM---- ---------- ---- ---------|

~~~~~~~~~~~~~~~~~~~~~~~~~~~~~~~~~~~~~~~~~~~~~~~~~~~~~~~~~x2
d----------------------------------------------------------|-----------------|
a----------------------------------------------------------|-----------------|
f----------------------------------------------------------|-----------------|
c----------------------------------------------------------|-----------------|
g---------------------5----------------------------1-------|-----------------|
c-8-8-7-7-3-3-5-5555555555555-8-8-7-7-3-3-1-11111111111111-|-8-8-7-7-3-3-5---|
                PM---- ------               ------- -------------------------|

Verse (For second Verse)
                             (repeat until ending)~~~~~~~~~~~~
d---------------------------|-----------------------------------|
a---------------------------|-----------------------------------|
f---------------------------|-----------------------------------|
c---------------------------|-----------------------------------|
g-5-555-3-1-111-3-5-555-3-1-|-------------------------7---------|
c-5-555-3-1-111-3-5-555-3-1-|-7-10-10-9-9-5-5-7-7777777777777---|
                                                PM---- ---------|
~~~~~~~~~~~~~~~~~~~~~~~~~~~~~~~~)Outro
d-------------------------------|-----------------------|
a-------------------------------|-----------------------|
f-------------------------------|-----------------------|
c-------------------------------|-7---\0----------------|
g-----------------------2-------|-7---\0----------------|
c-10-10-9-9-5-5-2-2222222222222-|-7---\0----------------|
                  PM---- -------------------------------|


well that is all i could figure out..ill do the intro solo thingy that tara does (morgan 


Important: The song above is NOT stored on the Chordie server. The original song is hosted at www.guitaretab.com. Chordie works as a search engine and provides on-the-fly formatting. Chordie does not index songs against artists'/composers' will. To remove this song please click here.

This song is displayed as text-only. Transposing and tuning is only available for chordpro-songs.

Login - add to songbook

Rating click stars to rate

Layout
Accuracy

SHARE PAGE  




You need to log in to post comments