Guitar Tabs, Chords and Lyrics


Amigo  Klamydia

E|------------------------------------------------------------------------------------------|


H|---15--------15--15--14---------------------------15-----15--15--14-----------------------|


G|-------------------------16------14-14--16-14------------------------16-------------------|

D|-----------------------------16------------------------------------------16---17p16--14-/-|
A|------------------------------------------------------------------------------------------|
E|------------------------------------------------------------------------------------------|
E|----------------------------14--14----------------------------------14---------------------|
H|---15--15--17--17--15--17-----------17--17-17--15---15-15--15--17------17--15--------15-\--|
G|------------------------------------------------------------------------------16-14-/------|
D|-------------------------------------------------------------------------------------------|
A|-------------------------------------------------------------------------------------------|
E|-------------------------------------------------------------------------------------------|
No [B5]pikkupoikana [G5]vaihdoin [D5]kadunpuolis[A5]kaa
[B5]kun sä marssit [G5]vastaan ja rupesit [D5]markkaa pummaa[A5]maan
[B5]Sä örisit[G5] ja uhosit[D5] pikku-[A5]ukoille turisit
[B5]Välillä taas[G5] kaikki oli[D5] ruusuista ja [A5]ihanaa
[B5]Myöhemmin [G5]näkyyn tottui ja [D5]joutuu totee[A5]maan
että [B5]Amigo on [G5]elävä osa [D5]Vaasan katuku[A5]vaa
[B5]Inflaation ja [G5]muut ihanuudet [D5]Amigokin [A5]huomasi
[B5]kun taksansa [G5]kahdesta markasta[D5] femmaan [A5]nosti
KERTO:

[G5]No heikot nakkaa lusikan nurkkaan [D5]Amigo vaan jaksaa

[G5]Vaasan kaduilla sitkeesti [D5]tallaa ja porskut[A5]taa
[G5]Sen mä vannon että jos sut [D5]joskus arkkuun pannaan
[G5]niin tullaan [A5]porukalla [D5]vimpan kerran moikkaamaan
SOOLO:

E|---------------------|   hetken aikaa tätä (kuuntele biisistä)
H|--------15-----15----|
G|---14b-----14b-------|
D|---------------------|   b=bend
A|---------------------|
E|---------------------|
E|----------------------|
H|--15----15----15-15-\-|   ja loppuu suurinpiirtein näin
G|-----14----14-14-14---|
D|----------------------|
A|----------------------|
E|----------------------|


[B5]Toiset selekä [G5]vääränä [D5]haalii mammo[A5]naa

[B5]Amigolle annat [G5]femman et nää [D5]onnellisem[A5]paa
[B5]Se kiittelee[G5] ja jodlaa[D5] kohti [A5]kauppaa ravaa    [B5]
Ja [G5]sieltä ostaa [D5]ruskeen pullon [A5]onnelaa
KERTO

SOOLO

KERTO

"vittu täys paska..."

Important: The song above is NOT stored on the Chordie server. The original song is hosted at www.guitaretab.com. Chordie works as a search engine and provides on-the-fly formatting. Chordie does not index songs against artists'/composers' will. To remove this song please click here.

Text color:
Chord color:
Chord grids: 
Font size:    
Page size: 

A5 B5 D5 G5
variations - click chord images

Login - add to songbook

Transpose chords

Tuning

Rating click stars to rate

Layout
Accuracy

SHARE PAGE  




You need to log in to post comments