Guitar Tabs, Chords and Lyrics


Crazy Horses   Kmfdm







Date: Fri, 1 Sep 1995 00:20:57 -0400 (EDT)



Crazy Horses - KMFDM
====================
-3rd track on the Godlike single.

Transcribed by:
Gord Murdoch
jm94bu@badger.ac.BrockU.CA

Notation:

3h5 : Hammer-on.
5p3 : Pull-off.
3b5 : Bend first note to the of the equivalent second note.
5r3 : Release the already bent note at the pitch written back
      to the original note.
3/5 : Strike the first note and slide up to the second note.
5\3 : Strike the first note and slide down to the second note.
p.m.: Palm mute.
a.h.: Artificial harmonic.
n.h.: Natural harmonic.
~   : Let note ring.
/\/\: Whammy bar.
Note : Tune the 5th string down to G.

Intro / Main Riff:
Palm mute all open strings.

E-|-------------|-------------|-------------|-----------|
B-|-------------|-------------|-------------|-----------|
G-|-------------|-------------|-------------|-----------| Repeat 
D-|-------------|-------------|-------------|-5-----5/6-| 4 times
G-|-0-0-0-3p0-0-|-0-0-0-3p0-0-|-0-0-0-3p0-0-|-5-0-0-5/6-|
E-|-------------|-------------|-------------|-----------|

Bridge:
E-|-------------|-------------|-------------|
B-|-------------|-------------|-------------|
G-|-------------|-------------|-------------|
D-|-8~---/\/\---|-10~---/\/\--|-5~---/\/\---|
G-|-8~---/\/\---|-10~---/\/\--|-5~---/\/\---|
E-|-------------|-------------|-------------|

E-|-------------|-------------|-------------|
B-|-------------|-------------|-------------|
G-|-------------|-------------|-------------|
D-|-8~---/\/\---|-10~---/\/\--|-6~---/\/\---|
G-|-8~---/\/\---|-10~---/\/\--|-6~---/\/\---|
E-|-------------|-------------|-------------|

Return to main riff.

The solo and some fills are missing but please add or correct anything 
you can and include this file with it. Don't forget to post it to 
OLGA as well.

Cheers,
Gord
=============================================================================
Gord Murdoch			     "You see...I don't know Neil, I don't   
jm94bu@badger.ac.BrockU.CA	      know Neil."
Brock University		      		
St. Catharines, Ontario		      The Tragically Hip
=============================================================================


Important: The song above is NOT stored on the Chordie server. The original song is hosted at www.guitaretab.com. Chordie works as a search engine and provides on-the-fly formatting. Chordie does not index songs against artists'/composers' will. To remove this song please click here.

This song is displayed as text-only. Transposing and tuning is only available for chordpro-songs.

Login - add to songbook

Rating click stars to rate

Layout
Accuracy

SHARE PAGE  




You need to log in to post comments