Guitar Tabs, Chords and Lyrics


Puff A Lump   Unknown



Puff-A-Lump
by The Kombucha Mushroom People

Intro/Chorus

----------------------------|
----------------------------|
----------------------------|
----------------------------|   x2
----------------------------|
-0--5-5--3-3--2-2-2--1-1----|

------------------------------------|
------------------------------------|
------------------------------------|
------------------------------------|  x3
------------------------------------|
-5-5-5--3-3-3-3--2-2-2-2-2--1-1-1---|

Verse

--------------------------|
--------------------------|
--------------------------|
--------------------------|   x2
------4-4-------4-12-10---|
-5-5-------5-5------------|

Pre Chorus

---------------------------|
---------------------------|
---------------------------|
---------------------------|   x2
---1---1--3---1---1--5-----|


Important: The song above is NOT stored on the Chordie server. The original song is hosted at www.guitaretab.com. Chordie works as a search engine and provides on-the-fly formatting. Chordie does not index songs against artists'/composers' will. To remove this song please click here.

This song is displayed as text-only. Transposing and tuning is only available for chordpro-songs.

Login - add to songbook

Rating click stars to rate

Layout
Accuracy

SHARE PAGE  




You need to log in to post comments