Guitar Tabs, Chords and Lyrics


Always Where I Need To Be   Kooks



The Kooks
Always where i need to be (solo)
Konk

OK, this is what I think is the solo of this song
The beginning is pretty accurate, but I'll be glad if someone thinks of a better tab for
fast ending or the whole solo itself and tells me


e ----------------------------------------------------------------|
B -12-11-9----------------9---------------------------------------|
G ---------11-9-8-9-8-7-8—-11-11-11---13-11-----------------------|
D ---------------------------------11-------13-12-11-9-11b12r11p9-|
A ----------------------------------------------------------------|
E ----------------------------------------------------------------|

e ----------------------------------------------------------------|
B -11\13-14-14\-/16-16\--14-1616-14-16-14-------------------------|
G ----------------------------------------16-21-20-19-------------|
D ----------------------------------------------------21-20-18----|
A ----------------------------------------------------------------|
E ----------------------------------------------------------------|

e -----------------------------------------------------------------------|
B -----------------------------------------------------------------------|
G -21-20-19--------------------------------------------------------------|
D ----------21-20-18-21-20-18-19῀----------------------------------|
A -----------------------------------------------------------------------|
E -----------------------------------------------------------------------|


my mail: alpha52_vulture@hotmail.com



Important: The song above is NOT stored on the Chordie server. The original song is hosted at www.guitaretab.com. Chordie works as a search engine and provides on-the-fly formatting. Chordie does not index songs against artists'/composers' will. To remove this song please click here.

This song is displayed as text-only. Transposing and tuning is only available for chordpro-songs.

Login - add to songbook

Rating click stars to rate

Layout
Accuracy

SHARE PAGE  




You need to log in to post comments