Guitar Tabs, Chords and Lyrics


Wake Up   Korn



This song is played on a 7-string guitar
Song:wake up
Artist:Korn
Tunning:7-string and dropped one whole step (A,D,G,C,F,A,D)

1 ---------------------------------------------------------
2 ---------------------------------------------------------
3 ---------------------------------------------------------
4 ---------------------------------------------------------
5 ---------------------------------------------------------
6 -------------------------3----------------------------3-2
7 -2/3-0-2--0-2/3-0-2--0-3---3-0--2/3-0-2--0-2/3-0-2--0-1-0
1 ---------------------------------------------------------
2 ---------------------------------------------------------
3 ---------------------------------------------------------
4 ---------------------------------------------------------
5 -9/10\9/10\9/10\9---------\4---9/10\9/10\9/10\9-------/13
6 ---------------------------------------------------------
7 ---------------------------------------------------------
1 -----12----11----8-----11--------------------------------
2 ----9-----9-----9-----9----------------------------------
3 ---9-----9-----9-----9-----------------------------------
4 -11----11----11----11------------------------------------
5 ---------------------------------------------------------
6 ---------------------------------------------------------
7 ---------------------------------------------------------
1 ---------------------------------------------------------
2 ---------------------------------------------------------
3 ---------------------------------------------------------
4 ---------------------------------------------------------
5 ---------------------------------------------------------
6 -4/5-----4---------5---4---------------------------------
7 -2/3-0-0-2---------3-0-2---------------------------------
1 ---------------------------------------------------------
2 -9/10---/22-----9/10-/22\10------------------------------
3 ---------------------------------------------------------
4 ---------------------------------------------------------
5 ---------------------------------------------------------
6 ---------------------------------------------------------


Important: The song above is NOT stored on the Chordie server. The original song is hosted at www.guitaretab.com. Chordie works as a search engine and provides on-the-fly formatting. Chordie does not index songs against artists/composers will. To remove this song please click here.

This song is displayed as text-only. Transposing and tuning is only available for chordpro-songs.

Login - add to songbook

Rating click stars to rate

Layout
Accuracy

Jango Player

SHARE PAGE  




You need to log in to post comments