Guitar Tabs, Chords and Lyrics


Daddy   Korn




        GUITAR TABLATURE ONLINE

          URL: www.angelfire.com/bc/tablature
	EMAIL: tablature@canada.com

 ----------------------------------------------------------------------------------------------

	     SONG: Daddy
	     BAND: Korn
	    ALBUM: Korn
   TRANSCRIBED BY: James Albers
	     DATE: Unknown

 ----------------------------------------------------------------------------------------------

	TUNING: tune your guitar down one full step (A,D,G,C,F,A,D)
     INTRO: (Fieldy)
                 
    F|-----------------------|
    C|-----------------------|
    G|-----------------------|
    D|------1^0-------1^0----|
    A|--0-0-----0-0--0----0--|
     
     VERSE:

    D|-------------------|
    A|-----13------12----|
    F|--16------15-------|
    C|-------------------|
    G|-------------------|
    D|-------------------|
    A|-------------------|

     CHORUS:

    D|----------------------------------------|
    A|----------------------------------------|
    F|----------------------------------------|
    C|----------------------------------------|
    G|--4/5-4----4/5-4----4/5-3----3/4-3------|  * this chord is a 1/3/3
    D|--4/5-4----4/5-4----4/5-3----3/4-3------|    chord on the repeat
    A|--2/3-2----2/3-2----2/3-1----1/2-1------|
        *

     FILL 1:

    D|-----------------|
    A|-----------------|
    F|-----------------|
    C|--0--------------| "It's alright"
    G|--4-5------------|
    D|-----------------|
    A|-----------------|

     BRIDGE 1:

    D|----------------13^--------------------|  

Important: The song above is NOT stored on the Chordie server. The original song is hosted at www.guitaretab.com. Chordie works as a search engine and provides on-the-fly formatting. Chordie does not index songs against artists'/composers' will. To remove this song please click here.

This song is displayed as text-only. Transposing and tuning is only available for chordpro-songs.

Login - add to songbook

Rating click stars to rate

Layout
Accuracy

Jango Player

SHARE PAGE  




You need to log in to post comments