Guitar Tabs, Chords and Lyrics


Beraksi   Kotak



Artist	: KOTAK
Song	: Beraksi
Made by	: Est
Email	: Iam_mrs_L@yahoo.com


I am not sure about this tab. . .
But,listening clearly,u will get it. . .
Good Luck!

Intro

e ||------------------|-----------------||
b ||------------------|-----------------||
g ||------------------|-----------------||
d ||-77-7\8-8/00-01-1-|-77-\8-8/0-1-3-5-||	3 times
a ||-55-5\6-6/00-01-1-|-55-\6-6/0-1-3-3-||
D ||----------00-01-1-|---------0-1-3---||


Verse 1

e ||--------------------||
b ||--------------------||
g ||--------------------||
d ||-7-7107\127-7-10-12-||
a ||-5-58-5\105-5-8--10-||
D ||--------------------||



Semua berdiri. . .

e ||-----------------||------------------------------------||
b ||-----------------||------------------------------------||
g ||-----------------||------------------------------------||
d ||-555555533335555-||-77-7\8-8/00-01-1-|-77-\8-8/0-1-3-5-||
a ||-555555533333333-||-55-5\6-6/00-01-1-|-55-\6-6/0-1-3-3-||
D ||-55555553333-----||----------00-01-1-|---------0-1-3---||



verse 2 is same with verse 1


Alunan distorsi. . .

e ||-----------------||
b ||-----------------||
g ||-----------------||
d ||-555555533335555-||
a ||-555555533333333-||
D ||-55555553333-----||



Chorus

e ||------------------------------------||
b ||------------------------------------||
g ||------------------------------------||
d ||-77-0115\7-0115\7-0115\777712121212-||	2 times
a ||-55-0113\5-0113\5-0113\555510101010-||
D ||----011----011----011---------------||



Bridge

e ||--------------------||
b ||--------------------||
g ||--------------------||
d ||-777771010033333555-||	8 times
a ||-555558-8-011111333-||
D ||----------0---------||



e ||-----------||
b ||-----------||
g ||-----------||
d ||-77--013/~-||	
a ||-55--0-----||
D ||-----0-----||
         
         *



Back to Chorus

Then Intro



This is my first tab. . .


Important: The song above is NOT stored on the Chordie server. The original song is hosted at www.guitaretab.com. Chordie works as a search engine and provides on-the-fly formatting. Chordie does not index songs against artists/composers will. To remove this song please click here.

This song is displayed as text-only. Transposing and tuning is only available for chordpro-songs.

Login - add to songbook

Rating click stars to rate

Layout
Accuracy

Jango Player

SHARE PAGE  




You need to log in to post comments