"yes"; ?> Kivireki by Kotiteollisuus - guitar chords, guitar tabs and lyrics - chordie

Kivireki

Kotiteollisuus


Kotiteollisuus: Kivireki
Vire: C#-G#-C#-F#-A#-D#
Tabit selvitti Jaws
|-----------------------------------| |-----------------------------------| |-----------------------------------| |---0-0-7-8-0-0-7-8-0-0-7-8-0-0-7---| x6 |---0-0-7-8-0-0-7-8-0-0-7-8-0-0-7---| |---0-0-7-8-0-0-7-8-0-0-7-8-0-0-7---|
x16 |-------------|-----------------| |-------------|-----------------| |-------------|-----------------| |---0-0-7-8---|-333333332222111-| |---0-0-7-8---|-333333332222111-| |---0-0-7-8---|-333333332222111-|
x16 |-------------|-----------------| |-------------|-----------------| |-------------|-----------------| |---0-0-7-8---|-333333332222222-| |---0-0-7-8---|-333333332222222-| |---0-0-7-8---|-333333332222222-|
Kertsi:
|---------------------------------------------------------------------|
|---------------------------------------------------------------------| |---------------------------------------------------------------------| |---0-0-0-0-0-0-0-0-8-8-8-8-8-8-8-8-3-3-3-3-3-3-3-3-7-7-7-7-7-7-7-7---| x2 |---0-0-0-0-0-0-0-0-8-8-8-8-8-8-8-8-3-3-3-3-3-3-3-3-7-7-7-7-7-7-7-7---| |---0-0-0-0-0-0-0-0-8-8-8-8-8-8-8-8-3-3-3-3-3-3-3-3-7-7-7-7-7-7-7-7---|
|-----------------------------------| |-----------------------------------| |-----------------------------------| |---0-0-7-8-0-0-7-8-0-0-7-8-0-0-7---| x2 |---0-0-7-8-0-0-7-8-0-0-7-8-0-0-7---| |---0-0-7-8-0-0-7-8-0-0-7-8-0-0-7---|
x16 |-------------|-----------------| |-------------|-----------------| |-------------|-----------------| |---0-0-7-8---|-333333332222222-| |---0-0-7-8---|-333333332222222-| |---0-0-7-8---|-333333332222222-|
Kertsi:
|---------------------------------------------------------------------| |---------------------------------------------------------------------| |---------------------------------------------------------------------| |---0-0-0-0-0-0-0-0-8-8-8-8-8-8-8-8-3-3-3-3-3-3-3-3-7-7-7-7-7-7-7-7---| x4 |---0-0-0-0-0-0-0-0-8-8-8-8-8-8-8-8-3-3-3-3-3-3-3-3-7-7-7-7-7-7-7-7---| |---0-0-0-0-0-0-0-0-8-8-8-8-8-8-8-8-3-3-3-3-3-3-3-3-7-7-7-7-7-7-7-7---|
|-----------------------------------| |-----------------------------------| |-----------------------------------| |---0-0-7-8-0-0-7-8-0-0-7-8-0-0-7---| x6 |---0-0-7-8-0-0-7-8-0-0-7-8-0-0-7---| |---0-0-7-8-0-0-7-8-0-0-7-8-0-0-7---|




























variations - click chord images
Transpose chords:
Tuning:
Cool service:
View: Size:
A  A  A
Rating:
Layout:
  • Currently 0/5 Stars.
  • 1
  • 2
  • 3
  • 4
  • 5
 
Accuracy:
  • Currently 2.6/5 Stars.
  • 1
  • 2
  • 3
  • 4
  • 5
 
click stars to rate
Chordie recommends:
Learn to play guitar with video-based, online guitar lessons at JamPlay.com
Songbook:
Login to add this song to your songbook
Support the artist
Preview/buy this song
MSN Music
Why this non-profit ad?

 
login to add comments/video/corrections