Guitar Tabs, Chords and Lyrics


Aamu   Kotiteollisuus



              Kotiteollisuus - Aamu

              Vire: C#-G#-C#-F#-A#-D#





Alussa
                                       
|------------------------|
|------------------------|
|------------------------|
|-0-3-3-5-0-3--3-5-6-5x--|   x1
|-0-3-3-5-0-3--3-5-6-5x--|
|-0-3-3-5-0-3--3-5-6-5x--|
    


Intro

|--------------------------------|
|--------------------------------|
|--------------------------------|
|-0-3-3-5-0-3--3-5-6-5-3-5-0-5-3-|   x4
|-0-3-3-5-0-3--3-5-6-5-3-5-0-5-3-|
|-0-3-3-5-0-3--3-5-6-5-3-5-0-5-3-|



|----------------------------------------------------------------|
|----------------------------------------------------------------|
|----------------------------------------------------------------|   
|-5-5-5-5-5-0-3-5-6-6-6-6-6-5-3-5-3-3-3-8--0-1-3-5-5-5-5-3-3-1-1-|   x2  
|-5-5-5-5-5-0-3-5-6-6-6-6-6-5-3-5-3-3-3-8--0-1-3-5-5-5-5-3-3-1-1-|   
|-5-5-5-5-5-0-3-5-6-6-6-6-6-5-3-5-3-3-3-8--0-1-3-5-5-5-5-3-3-1-1-|




Kuten kansa on...

|----------------------------------------------------------------|
|----------------------------------------------------------------|
|----------------------------------------------------------------|   
|-5-5-5-5-5-0-3-5-6-6-6-6-6-5-3-5-3-3-3-8--0-1-3-5-5-5-5-3-3-1-1-|   x2  
|-5-5-5-5-5-0-3-5-6-6-6-6-6-5-3-5-3-3-3-8--0-1-3-5-5-5-5-3-3-1-1-|   
|-5-5-5-5-5-0-3-5-6-6-6-6-6-5-3-5-3-3-3-8--0-1-3-5-5-5-5-3-3-1-1-|
  x x x x x x x x x x x x x x x x x x x x  x x x x x x x x x x x



Jaettiin viisi leipää...

|------------------------------------------------------|
|------------------------------------------------------|
|---5-------------------------5------------------------|
|---5--3-0-5--4-3--3-0-5--3-0-5---3-0-5----4--3-3-3...-|   
|---3--3-0-5--4-3--3-0-5--3-0-3---3-0-5----4--3-3-3...-|
|------3-0-5--4-3--3-0-5--3-0-----3-0-5----4--3-3-3...-|
                                              x x x


Kertsi

|---------------------------------------------------------|
|---------------------------------------------------------|
|---------------------------------------------------------|
|-0-0-0-0-...-8-8-8-8-...-10-10-10-10-...-7-7-7-7-5-5-3-3-|   x2 
|-0-0-0-0-...-8-8-8-8-...-10-10-10-10-...-7-7-7-7-5-5-3-3-|  
|-0-0-0-0-...-8-8-8-8-...-10-10-10-10-...-7-7-7-7-5-5-3-3-|



|--------------------------------|
|--------------------------------|
|--------------------------------|
|-0-3-3-5-0-3--3-5-6-5-3-5-0-5-3-|   x4
|-0-3-3-5-0-3--3-5-6-5-3-5-0-5-3-|
|-0-3-3-5-0-3--3-5-6-5-3-5-0-5-3-|



En nukuta
lastani enää saduilla...
|----------------------------------------------------------------|
|----------------------------------------------------------------|
|----------------------------------------------------------------|   
|-5-5-5-5-5-0-3-5-6-6-6-6-6-5-3-5-3-3-3-8--0-1-3-5-5-5-5-3-3-1-1-|   x2  
|-5-5-5-5-5-0-3-5-6-6-6-6-6-5-3-5-3-3-3-8--0-1-3-5-5-5-5-3-3-1-1-|   
|-5-5-5-5-5-0-3-5-6-6-6-6-6-5-3-5-3-3-3-8--0-1-3-5-5-5-5-3-3-1-1-|
  x x x x x x x x x x x x x x x x x x x x  x x x x x x x x x x x


Aatteen, uskonnon, rahan

|------------------------------------------------------|
|------------------------------------------------------|
|---5-------------------------5------------------------|
|---5--3-0-5--4-3--3-0-5--3-0-5---3-0-5----4--3-3-3...-|   
|---3--3-0-5--4-3--3-0-5--3-0-3---3-0-5----4--3-3-3...-|
|------3-0-5--4-3--3-0-5--3-0-----3-0-5----4--3-3-3...-|
                                              x x x

Kertsi

|---------------------------------------------------------|
|---------------------------------------------------------|
|---------------------------------------------------------|
|-0-0-0-0-...-8-8-8-8-...-10-10-10-10-...-7-7-7-7-5-5-3-3-|   x4 
|-0-0-0-0-...-8-8-8-8-...-10-10-10-10-...-7-7-7-7-5-5-3-3-|  
|-0-0-0-0-...-8-8-8-8-...-10-10-10-10-...-7-7-7-7-5-5-3-3-|


Tuonelan soitin soi...

BASSO riffi



Tuonelan soitin soi...                             x8
|--------------------------------|---|
|--------------------------------|---|
|--------------------------------|---|
|-0-3-3-5-0-3--3-5-6-5-3-5-0-5-3-|-0-| 
|-0-3-3-5-0-3--3-5-6-5-3-5-0-5-3-|-0-|
|-0-3-3-5-0-3--3-5-6-5-3-5-0-5-3-|-0-|






Important: The song above is NOT stored on the Chordie server. The original song is hosted at www.guitaretab.com. Chordie works as a search engine and provides on-the-fly formatting. Chordie does not index songs against artists'/composers' will. To remove this song please click here.

This song is displayed as text-only. Transposing and tuning is only available for chordpro-songs.

Login - add to songbook

Rating click stars to rate

Layout
Accuracy

SHARE PAGE  




You need to log in to post comments