Guitar Tabs, Chords and Lyrics


Quinna   Kristet Utseende



En av TKU's helt klart bästa låtar xD



/ - Slide
p - pull-off 
h - hammer-on 
x - mute
\ - slide from/into "nowhere"
^ - half-note bend
b - whole-note bend
* - harmonic
q - squeel



Intro

Guitar I
|----------------------------------------------------------------|
|-8-5-----8-5---------------------5-------5----------------------|Play twice
|-----------------5-7-----5-7-------4-------4-----5-7-----5-7----|
|----------------------------------------------------------------|
|----------------------------------------------------------------|
|----------------------------------------------------------------|
| Guitar II
|----------------------------------------------------------------|
|----------------------------------------------------------------|
|-9---------------5-------------------------------7--------------|
|-9---------------5---------------2---------------7--------------|
|-7---------------3---------------2---------------5--------------|play twice
|---------------------------------0------------------------------|

Bridge
|--------------------------------|
|--------------------------------|
|--------------------------------|
|-2-2-----2-2-----2-2-----2-2----|
|-2-2-----2-2-----2-2-----2-2----|
|-0-0-----0-0-----0-0-----0-0----|



Verse
|--------------------------------|
|--------------------------------|
|-------------------------5-5/7-7|
|-2-2-----2-2-----5-5-----5-5/7-7|Play 4 times
|-2-2-----2-2-----5-5-----3-3/5-5|
|-0-0-----0-0-----3-3------------|

Chorus/refräng
|----------------------------------------------------------------|
|----------------------------------------------------------------|
|-----------------2-------2-----------------------4---4---4---4--|play twice
|-2-------5-------2-------2-------2-------5-------4---4---4---4--|
|-2-------5-------0-------0-------2-------5-------2---2---2---2--|
|-0-------3-----------------------0-------3----------------------|
  lätt att lura...


Interlude

|----------------------------------------------------------------|
|-8-5-----8-5---------------------5-------5----------------------|Play twice
|-----------------5-7-----5-7-------4-------4-----5-7-----5-7----|
|----------------------------------------------------------------|
|----------------------------------------------------------------|
|----------------------------------------------------------------|

Bridge

|--------------------------------|
|--------------------------------|
|--------------------------------|
|--------------------------------|
|-2-2-----2-2-----2-2-----2-2----|
|-0-0-----0-0-----0-0-----0-0----|

Verse/värs
|--------------------------------|
|--------------------------------|
|-------------------------5-5/7-7|Play 4 times
|-2-2-----2-2-----5-5-----5-5/7-7|
|-2-2-----2-2-----5-5-----3-3/5-5|
|-0-0-----0-0-----3-3------------|

Chorus/refräng
|----------------------------------------------------------------|
|----------------------------------------------------------------|
|-----------------2-------2-----------------------4---4---4---4--|
|-2-------5-------2-------2-------2-------5-------4---4---4---4--|
|-2-------5-------0-------0-------2-------5-------2---2---2---2--
|-0-------3-----------------------0-------3-------<


Important: The song above is NOT stored on the Chordie server. The original song is hosted at www.guitaretab.com. Chordie works as a search engine and provides on-the-fly formatting. Chordie does not index songs against artists'/composers' will. To remove this song please click here.

This song is displayed as text-only. Transposing and tuning is only available for chordpro-songs.

Login - add to songbook

Rating click stars to rate

Layout
Accuracy

SHARE PAGE  




You need to log in to post comments