Guitar Tabs, Chords and Lyrics


A Loon   Kristin Hersh



Kristin Hersh - A Loon [Hips & Makers]

23.06.2008

|-5-5-5---3---5---0---0-----|----5-5-5---8----5---0---0-----5---------|
|-5-5-5---3---5---0---0-----|----5-5-5---8----5---0---0-----5---------|
|-5-5-5---5---7---0---0-----|----5-5-5---10---7---0---0-----5---------|
|-7-7-7---5---7---0---0-----|----7-7-7---10---7---0---0-----7---------|
|-7-7-7---3---5---2-0-0-----|----7-7-7---8----5---2-0-0-----7---------|
|-5-5-5---0---0---0---3-0---|----5-5-5---0----0---0---3-0---5---------|

Some store
I'm not going back there anymore
Wandered in
Don't think I'll do that again
No I don't think I'll do that again

I swear
You look at me cross-eyed and I don't know what to do
No I don't know what to do
Crazy loon


_____________________________PART II________________________________


                                               (Cadd9:  x32033)
                                               (A7sus4: x02033)
                                               (Dsus4:  xx0233)


          Cadd9  Dsus4  Cadd9  Dsus4..
|---------3------3----------------------|
|--3------3------3----------------------|
|----0----0------2----------------------|
|---------2------0----------------------|
|------3--3------0----------------------|
|---------0------0----------------------|

Cadd9, Dsus4

There's a room in his pallet
There's a pillow for his head
Sees an offshoot in his bottle
When he wants to see me dead
Heirlooms A loon
Heirlooms A loon


Cadd9, A7sus4, Dsus4

Never thought I'd see that silly grin
Never thought I'd see that fool again
Never thought I'd like that lunatic


          Cadd9  Dsus4  Cadd9  Dsus4..
|---------3------3----------------------|
|--3------3------3----------------------|
|----0----0------2----------------------|
|---------2------0----------------------|
|------3--3------0----------------------|
|---------0------0----------------------|

Cadd9, Dsus4

Nothing left to dance around
What a hero
What a black and blue bird
What a loon, A loon


Important: The song above is NOT stored on the Chordie server. The original song is hosted at www.guitaretab.com. Chordie works as a search engine and provides on-the-fly formatting. Chordie does not index songs against artists'/composers' will. To remove this song please click here.

This song is displayed as text-only. Transposing and tuning is only available for chordpro-songs.

Login - add to songbook

Rating click stars to rate

Layout
Accuracy

SHARE PAGE  




You need to log in to post comments