Sing For Me

Krystal Meyers

e||------------------5-5-5-7-5------------------|

B||--5-----5-6-8--5-8---------8--5--------------|
G||----7-5------------------------7-5-----------|
D||---------------------------------------------|
A||---------------------------------------------|
E||---------------------------------------------|

 DmG
Staring at a photograph of where we used to be

 C
 When the sky was bright and crystal clear and life was just a breeze

 DbEA
 Oh well, now something's taking you over

 DmG
 You're Burning all your bridges and you're left without a clue

 C
 And you wonder why these memories keep staring back to you

 BbEA
 Oh well, now don't look over your shoulder....

GUITAR 1&2
e||-----------------------------------|
B||-----------------------------------|
G||-----------------------------------|
D||-----------------------------------|
A||-3---2---0--------------5----------|
E||------------3---1---0-------3------|


Sing for life, sing for joy
sing for every man and woman, girl or boy
Sing a song, a simple melody
Sing out loud or just hum
Sing for moments in the past and times to come
Sing for history and destiny
Won't you sing for me?

e||-------------------------------------|
B||------------------10-12b-------------|
G||----------9-10-12--------------------|
D||--9-10-12----------------------------|
A||-------------------------------------|
E||-------------------------------------|


GUITAR 1 solo
e||--------------------------------------8b-----10-12b-10h12p10---------------------------|
B||----5-6-5h6p5-5-6-5--5-6/8/10-10-8-10---10/13---------------13-10--10-------------5-6b-|
G||---7---------7------7--------------------------------------------12--12-10-9/10-7------|
D||--7----------------------------------------------------------------------------7-------|
A||---------------------------------------------------------------------------------------|
E||---------------------------------------------------------------------------------------|


GUITAR 2 solo
__________________________________________________________
 DmG
Standig at the station and you don't know where to go
 C
 You're trying hard to hold on the world you used to know
 BbEA
 Oh well, don't let it get to you baby....

__________________________________________________________
Sing for life, sing for joy
sing for every man and woman, girl or boy
Sing a song, a simple melody
Sing out loud or just hum
Sing for moments in the past and times to come
Sing for history and destiny
Won't you sing for me?

GUITAR 1
e||----------------5-5-5-7-5----------------------------|
B||--5---5-6-8--5-8---------8-5----6-6-5-3-3---5--------|
G||---7-5----------------------7-5------------5-5-7-----|
D||-----------------------------------------------------|
A||-----------------------------------------------------|
E||-----------------------------------------------------|


GUITAR 2
e||-----------------------------------|
B||-----------------------------------|
G||-----------------------------------|
D||-----------------------------------|
A||-3---2---0--------------5----------|
E||------------3---1---0-------3------|


___________________________________________________________
 F
 Don't look back, just keep moving on
 GC
 Get your feet and walk into different zone
 F
Don't care what they say, just let the music play
 CBbBA
E||-------------------|
B||-------------------|
G||-------------------|
D||-------------------|
A||-3-2-1-0-----------|
E||-------------------|


HEY G G G G | A A A A
e||---------------------------|
B||---------------------------|
G||-4-4-4-4--6-6-6-6----------|
D||-5-5-5-5--7-7-7-7----------|
A||-5-5-5-5--7-7-7-7----------|
E||-3-3-3-3--5-5-5-5----------|

Pm......................

Won't you sing for me?
e||------------------------------|
B||------------------------------|
G||----------9b------------------|
D||--9-10-12---------------------|
A||------------------------------|
E||------------------------------|


Sing for me

sing for life, sing for joy
sing for every man and woman,girl or boy
Sing a song,a simple melody
Sing out loud or just hum
Sing for moments in the past and times to come
Sing for history and destiny
Won't you sing for me?
(sing for life)
(Sing for joy)
(Sing for every man and woman, girl or boy)
Sing....for....me...

D#||---10-9-7-------7b-----10-9-7-------------10-9-7------7b--------------------|
A#||---------10-8-10---10---------10-8-7-10b--------10-8-10-10------------------|
F#||------------------------------------9---9-----------------------------------|
C#||----------------------------------------------------------------------------|
G#||----------------------------------------------------------------------------|
D#||----------------------------------------------------------------------------|				



A B Bb C Db Dm E F G
variations - click chord images
Transpose chords:
Tuning:
Cool service:
View: Size:
A  A  A
Rating:
Layout:
  • Currently 0/5 Stars.
  • 1
  • 2
  • 3
  • 4
  • 5
 
Accuracy:
  • Currently 0/5 Stars.
  • 1
  • 2
  • 3
  • 4
  • 5
 
click stars to rate
Chordie recommends:
Learn to play this song & others via video guitar lessons at JamPlay.com
Songbook:
Login to add this song to your songbook
Support the artist
Preview/buy this song
MSN Music
Why this non-profit ad?

 
login to add comments/video/corrections