Guitar Tabs, Chords and Lyrics


Ashes  Kt Tunstall

-3-5-7--3-5-7->10->7--(5)-3-2-0------3-5-7--3-5-7->10->7--(5)-3-2-0-----3->0-|


--------------------------------3-1---------------------------------3-1------|


-----------------------------------------------------------------------------|

-----------------------------------------------------------------------------|
-----------------------------------------------------------------------------|
-----------------------------------------------------------------------------|
I am a [G]pain in your as[Bm]s
And I'm [Em]wondering how long it's gonna [C]last
Be my m[G]irror, be my f[Bm]riend,
Be the w[Em]orkhouse of the energy
I t[C]wist your arm to spin
REFRAIN

Every[A]day, like a power st[C]ation
You know it i[G]sn't good  [Bm]
I know you're b[Em]urning too much w[G]ood
Oh, and you bu[C]rn out
The twisted ir[Bm]ony is
Your ashes come home to [G]me

E|-3-5-7--3-5-7->10->7--3-5-7--3-5-7->10->7-|-(5)-3-2-0-----|
B|------------------------------------------|-----------3-1-|
G|------------------------------------------|---------------|
D|------------------------------------------|---------------|
A|------------------------------------------|---------------|
E|------------------------------------------|---------------|

V
                                  Come home to[Bm] me
VERSE 2

So we t[G]ake a walk
To make some sens[Bm]e
And I'm [Em]wondering if you fancy my adva[C]nce
I have [G]pushed you
Way too far  [Bm]
And you [Em]say Fuck you little princess
Who[C] the hell do you think you are?

REFRAIN

Every[A]day, like a power st[C]ation
You know it i[G]sn't good  [Bm]
I know you're b[Em]urning too much w[G]ood
Oh, and you bu[C]rn out
The twisted ir[Bm]ony is
Your ashes come home to [G]me

(THIS IS A TROMPET SOLO BUT I'VE ADDAPTED IT TO GUITAR)

E|----------10--------------10-----------14-12-12-10-10---------------------|
B|--8-10-12----12---8-10-12----12---8-12----------------12-10-12--8---8-10--|
G|--------------------------------------------------------------------------|
D|--------------------------------------------------------------------------|
A|--------------------------------------------------------------------------|
E|--------------------------------------------------------------------------|
E|10-----------10--------14-12-12-10-10-----------12-10-10--------|
B|--12---8-10------8-12-----------------12-10--8----------12-10---|
G|----------------------------------------------------------------|
D|----------------------------------------------------------------|
A|----------------------------------------------------------------|
E|----------------------------------------------------------------|



(I COULD'NT TAKE OFF THE LAST PART OF THE SONG SO THE LAST 40 SECONDS ARE NOT IN THIS TAB, SORRY)

I WISH YOU ENJOY IT!!

Important: The song above is NOT stored on the Chordie server. The original song is hosted at www.guitaretab.com. Chordie works as a search engine and provides on-the-fly formatting. Chordie does not index songs against artists'/composers' will. To remove this song please click here.

Text color:
Chord color:
Chord grids: 
Font size:    
Page size: 

A Bm C Em G
variations - click chord images

Login - add to songbook

Transpose chords

Tuning

Rating click stars to rate

Layout
Accuracy

SHARE PAGE  




You need to log in to post comments