Fuiste Mala

Kumbia Kings

E--------------------------------------------------------|

A--------------------------------------------------------|
D--------------------------------------------------------|
G--------------------------------------------------------|
B------------13-13---------------11-12-------------------|
e-11-11-10-10-----10-11-15-13-16-------10-13-11-13-16-15-|

 CmFmBb7D#G#G

E-------------------------------------------------------|
A-------------------------------------------------------|
D-------------------------------------------------------|
G-------------------------------------------------------|
B--------------13-13-13-----------------------11-11-13--|
e--11-11-10-10----------10-11-15-13-13-15-16------------|
E-------------------------------|
A-------------------------------|
D-------------------------------|
G-------------------------------|
B--13---------------------------|
e-----10-13-16-15-15-13-15------|


 Cm
 Que yo vuelva a recibirte
Fm riff
Y me vienes a pedir             G---------------------|
                                B---------------------|
Y a has vivido atormentada      e—15-15-13-13-12-15---|

 Bb7
Por no estar junto a mi
 D#
Porque me quieres  riff
 G#G
Pues que me crees

 Cm
 Que yo borre el pasado
 Fm
Como si nunca paso  

Y que te libre de tus penas
 Bb7
Que te de mi perdón
 D#
Porque te quiero  riff
 G#GG/G/
Lo siento pero estas en un error  

Coro:
 CmFm
Es que fuiste mala con mi corazon
 Bb7D#G#/G/
Y ahora vienes a buscarme, amarme
 CmFm
Un día fuiste todo para mi
 Bb7D#G#/G/
Y ahora no puedo ni verte, vete 

Puente: Cm, Fm, Bb7, D#, G#, G

Solo:

E-------------------------------------------------------|
A-------------------------------------------------------|
D-------------------------------------------------------|
G-------------------------------------------------------|
B--------------13-13-13-----------------------11-11-13--|
e--11-11-10-10----------10-11-15-13-13-15-16------------|
E-------------------------------|
A-------------------------------|
D-------------------------------|
G-------------------------------|
B--13---------------------------|
e-----10-13-16-15-15-13-15------|


 Cm
 Que me acerque a tus labios
 Fm
Que han besado muchos más  

Y que me entregue a tus brazos
 Bb7
Que todo vuelva a ser igual
 D#
Porque me amas   riff
 G#GG/G/
Escúchame que nunca jamás 

Coro =
 CmFm
Es que fuiste mala con mi corazón...

Solo de acordeón puente: Cm Fm Bb7 D# G# G

D------------------------------------------------------|
G------------------------------------------------------|
B----13-------13----------------------11/13------------|
e-11----10-11----10-11-13-15-13-15-16-------14-12-10---|
D----------------------------------|
G----------------------------------|
B—13-12-13-------------------------|
e----------10-12-14-16-15-13-15----|


final coro x2


Bb7 Cm D# Fm G G#
variations - click chord images
Transpose chords:
Tuning:
Cool service:
View: Size:
A  A  A
Rating:
Layout:
  • Currently 2.5/5 Stars.
  • 1
  • 2
  • 3
  • 4
  • 5
 
Accuracy:
  • Currently 2.4/5 Stars.
  • 1
  • 2
  • 3
  • 4
  • 5
 
click stars to rate
Chordie recommends:
Check out JamPlay.com for online video guitar lessons
Songbook:
Login to add this song to your songbook
Support the artist
Preview/buy this song
MSN Music
Why this non-profit ad?

 
login to add comments/video/corrections