Chordie logo


Highschool   Kumkwat










Author/Artist: kumkwat
Title: High School
Transcribed by: Will Petrik
Email: willpetrik@yahoo.com

-|-------------------------------------------------------------------------|-|
-|-------------------------------------------------------------------------|-|
-|-----7------7-------7------2---2---/4---4---4----6---6h7-----------------|-|
-|-------------------------------------------------------------------------|-|
-|-5-5----5-5---5----------------------------------------------------------|-|
-|----------------5-5---5-\2---2---2----3---3---/5---5---------------------|-|
 repeat 2x  (2x is basically the same, just listen for changes)

-|-------------------------------------------------------------------------|-|
-|-------------------------------------------------------------------------|-|
-|--------------------------------7-77777----------------------------------|-|
-|-4-444444--5-5--7-7-------------7-77777--7-77777--4-44444--5-5--7-7------|-|
-|-4-444444--5-5--7-7-------------5-55555--7-77777--4-44444--5-5--7-7------|-|
-|-2-222222--3-3--5-5----------------------5-55555--2-22222--3-3--5-5------|-|
 repeat 4x and on 4th time go to ^repeat through this 2x and go to riff 1 2x

-|-------------------------------------------------------------------------|-|
-|-------------------------------------------------------------------------|-|
-|--7----7----2----4----6--------------------------------------------------|-|
-|-------------------------------------------------------------------------|-|
-|--5----------------------------------------------------------------------|-|
-|-------5----2----3----5--------------------------------------------------|-|
  during verse just palm mute the same chord progression over a couple times

-|-------------------------------------------------------------------------|-|
-|-------------------------------------------------------------------------|-|
-|--7----7----6----6----7--------------------------------------------------|-|
-|--7----5----5----7----7--------------------------------------------------|-|
-|--5----5----5----5----5--------------------------------------------------|-|
-|-------------------------------------------------------------------------|-|


Important: The song above is NOT stored on the Chordie server. The original song is hosted at www.guitaretab.com. Chordie works as a search engine and provides on-the-fly formatting. Chordie does not index songs against artists/composers will. To remove this song please click here.

This song is displayed as text-only. Transposing and tuning is only available for chordpro-songs.

Login - add to songbook

Rating click stars to rate

Layout
Accuracy

SHARE PAGE  




You need to log in to post comments