Guitar Tabs, Chords and Lyrics


La Derniere Danse   Kyo



Couplet 1 et 2:

e:------------------|
B:------------------|
G:--7---3--------5--|
D:-7-7-3-3--3---5-5-|
A:5---1----3-3-3----|
E:--------1---------|

CHORUS:

e:----6-5---------|
B:-6-6---6-6-6-8--|
G:7-7--7--5-5-5-5-|
D:----------------|
A:----------------|
E:----------------|

Bridge:

e:--------------|
B:--------------|
G:--------------|
D:----3-7-------|
A:5-5----5--3-2-|


Important: The song above is NOT stored on the Chordie server. The original song is hosted at www.guitaretab.com. Chordie works as a search engine and provides on-the-fly formatting. Chordie does not index songs against artists'/composers' will. To remove this song please click here.

This song is displayed as text-only. Transposing and tuning is only available for chordpro-songs.

Login - add to songbook

Rating click stars to rate

Layout
Accuracy

SHARE PAGE  




You need to log in to post comments