Guitar Tabs, Chords and Lyrics


Asteroid   Kyuss



|------------------------------------------------------|
|------------------------------------------------------|
|------------------------------------------------------|
|------------------------------------------------------|
|----7-----7---9-7---7-7-----7-5-/10-7---7-----7---9-7-|
|--0---0-0---8---0-0-----0-0-----------0---0-0---8---0-|

|-------------------------|
|-------------------------|
|-------------------------|
|-------------------------|
|---10h12p10-10\9-9\7-5-4-|
|-0-----------------------|


|-----------------------|
|-----------------------|
|-----------------------|
|-----------------------|
|-------12----11----7-6-|


Important: The song above is NOT stored on the Chordie server. The original song is hosted at www.guitaretab.com. Chordie works as a search engine and provides on-the-fly formatting. Chordie does not index songs against artists'/composers' will. To remove this song please click here.

This song is displayed as text-only. Transposing and tuning is only available for chordpro-songs.

Login - add to songbook

Rating click stars to rate

Layout
Accuracy

SHARE PAGE  




You need to log in to post comments