Chordie logo


Andres   L7



L7 - Andres

Standard Tuning & Heavy Distortion

There goes a kick ass tune from the coolest girls around. If the Spice girls were
rocking like L7 the planet would be a much better place to live, although Donita
is good-looking enough for my bed. While she don't show up here I keep on playing
the "riffs" below until my fingers bleed and so should you.
Intro and Verse
e|--------------------------------------------------------|
B|--------------------------------------------------------|
G|--------------------------------------------------------|
D|---2-2-2-2-2-2-2----------------------------------------|
A|---2-2-2-2-2-2-2-4-5-4----------------------------------|
E|-----------------2-3-2----------------------------------|

Chorus
e|--------------------------------------------------------|
B|--------------------------------------------------------|
G|--------------------------------------------------------|
D|--------------------------------------------------------|
A|---3-3-3-3-3-3-3-3-5-5-5-5-5-5--------------------------|
E|---1-1-1-1-1-1-1-1-3-3-3-3-3-3--------------------------|

Solo
I don't care about solos but if you wanna play it, it's all with the


Important: The song above is NOT stored on the Chordie server. The original song is hosted at www.guitaretab.com. Chordie works as a search engine and provides on-the-fly formatting. Chordie does not index songs against artists/composers will. To remove this song please click here.

This song is displayed as text-only. Transposing and tuning is only available for chordpro-songs.

Login - add to songbook

Rating click stars to rate

Layout
Accuracy

Jango Player

SHARE PAGE  




You need to log in to post comments