""; ?> Fuera De Mi by La Ley - guitar chords, guitar tabs and lyrics - chordie

Fuera De Mi

La Ley

e|-------------------------------------------------------------------------------------|]

B|-------------------------------------------------------------------------------------|]
G|----1-1-x-1-x-1-1-1-1-1^2-2-x-2-x-2-2-2-2-2-2^1-1-x-1-x-1-1-1-1-1--------------------|]
D|--4-2-2-x-2-x-2-2-2-2-2---2-x-2-x-2-2-2-2-2-2---2-x-2-x-2-2-2-2-2-4-4-x-4-x-4-4-4-4--|]
A|--2-2-2-x-2-x-2-2-2-2-2---2-x-2-x-2-2-2-2-2-2---2-x-2-x-2-2-2-2-2-2-2-x-2-x-2-2-2-2--|]
E|--0-0-0---------0-0-0-0---0-----------0-0-0-0---0-----------------0-0---------0-0-0--|]

 EAEA
e|-------------------------------------------------------------------------|]
B|---------------------------------------------------------5---------------|]
G|------4-----------------4--------------------------------4---------------|]
D|--4^6----4^6--/6----4^6---4^6----------2-2-----(/6)--4^6---4^6----2^4^2--|]
A|------------------------------/4---2^4-----4-2-----------------/4--------|]
E|-------------------------------------------------------------------------|]


-=Verso 1=-
 EA
  Lentamente desvanezco y uso el viento de pretexto
 EA
  Mi cabeza rueda en la escalera
 EAEA
 Las miradas cínicas barren los detalles que   al final del día morirán
E A E* B
Y digo: 'todo se me escapa Un paso más allá'

-=Coro=-
 EAC#mB
Fuera de mi   en el umbral del mundo   sin necesidad de entrar
 EAC#mB
Fuera de mi   perdido en otro rumbo    sin necesidad de volver

-=Verso 2=-
 EAEA
 Me encontré en un balcón  con un ángel celestial  que me devolvió mi cabeza
 EA
 Me explicó como encontrarla cuando se desprende del alma
 EA
  Conectándola a mi corazón
E A E* B
Y digo: 'todo se me escapa Un paso más allá'

-=Coro=-
 EAC#mB
Fuera de mi   en el umbral del mundo   sin necesidad de entrar
 EAC#mB
Fuera de mi   perdido en otro rumbo    sin necesidad de volver
 ABE
Solté los lazos que me atan    Fuera de mi 

-=Solo=-
 EAEAE
e|----------------------------------------------------------------------------------|]
B|----------------------------------------------------------------------------------|]
G|--2/9----8-9-11--13---9--8^9^8--4-/6--4-------------------------------------------|]
D|------------------------------------------4--6--4------6b(7)r(6)-4----------------|]
A|----------------------------------------------------------------------------------|]
E|---------------------------------------------------5----------------4b(5)r(4)--0--|]


-=Verso 3=-
 EAEA
 Cuando en día se agotó  sentí que era tiempo de  regresarle pasos al camino
 EA
 Pregunté de vuelta si todavía existía el amor
 EA
  Nadie se digno a contestar

-=Coro=-
          E             A            C#m                 B             e|-11b12-11-9------|]
Fuera de mi  en el umbral del mundo   sin necesidad de entrar          B|------------12-9-|]
          E             A            C#m                B              G|-----------------|]
Fuera de mi  perdido en otro rumbo    sin necesidad de volver          D|-----------------|]
           A           B                A             B             E  A|-----------------|]
Solté los lazos que me atan   Dejando huellas que  pisan  Fuera de mi  E|-----------------|]


-=Final=- ( E A B B E A G E )
e|--------------------------------------------------11b12-11----/9-7---------------------|]
B|-----------------------------------------------------------12------9-9/10-9------8^7---|]
G|-/9--8-9-11--13--9--8^9^8--4-/6--4------------------------------------------6-9------9-|]
D|------------------------------------4--6--2^4^2----------------------------------------|]
A|------------------------------------------------2--------------------------------------|]
E|---------------------------------------------------------------------------------------|]


-=Nota=-
E* = 002100

Tab by: Ramón Guillermo Galáz Rios, Tijuana BC, please verify the margens.


A B C#m E
variations - click chord images
Transpose chords:
Tuning:
Cool service:
View: Size:
A  A  A
Rating:
Layout:
  • Currently 3/5 Stars.
  • 1
  • 2
  • 3
  • 4
  • 5
 
Accuracy:
  • Currently 0/5 Stars.
  • 1
  • 2
  • 3
  • 4
  • 5
 
click stars to rate
Chordie recommends:
Get acoustic guitar lessons and electric guitar lessons at JamPlay.com
Songbook:
Login to add this song to your songbook
Support the artist
Preview/buy this song
MSN Music
Why this non-profit ad?

 
login to add comments/video/corrections