Chordie logo

Txus   La Polla Records



aqui la mitica cancion de txus de la polla records
es muy facililla y muy repetitiva

comenzamos:
la cancion tiene 3 quintas que son estas:

||----------|  x16
||----------|
||--5-------|
||--3-------|
||--3-------|
||----------|
Uoooo,uoooooouooooo,uooooooo

||---------|  x8
||---------|
||---------|
||--3------|
||--3------|
||--1------|
uoooooouooooo

Parte 2:
||---------| x8
||---------|
||---------|
||----5----|
||----5----|
||----3----|
uooooooo

luego antes del solo tiene otra parte que ess asi:

||-------------------|
||-------------------|
||-------------------|
||--7----7----5-5-5--|
||--7----7----5-5-5--|
||--5----5----3-3-3--|

solo:

||-------0-------0---------0-------0-----0---------|
||-1-1-3---3-1-----3-1-1-3---3-1-----3-----3-1---1-|
||-------------2-----------------2-----2-------2---|
||-------------------------------------------------|
||-------------------------------------------------|
||-------------------------------------------------|
esta es la forma mas facil de tocarlo

este es el solo bueno:

||--------------------------------------------------------|
||-----7-9-7-5---10-9-7-5---9-5----7-9-7-5---10-9-7-5-----|
||-9--9-------6-----------6------9--------6----------6-9--|
||--------------------------------------------------------|
||--------------------------------------------------------|
||--------------------------------------------------------|




Important: The song above is NOT stored on the Chordie server. The original song is hosted at www.guitaretab.com. Chordie works as a search engine and provides on-the-fly formatting. Chordie does not index songs against artists/composers will. To remove this song please click here.

This song is displayed as text-only. Transposing and tuning is only available for chordpro-songs.

Login - add to songbook

Rating click stars to rate

Layout
Accuracy

SHARE PAGE  



You need to log in to post comments