FCDm
6--------------------------------8h10h8---------------|
5--------------8----8h10vr---------------10-10vr8-----|
4--10--10--10----10--------10-10-------------------10-|
3--10--10--10-----------------------------------------|
2--8---8---8------------------------------------------|
1-----------------------------------------------------|


 BbGmBbCBb
 F
Pido por tu besos
 CDm
por tu ingrata sonrisa
 BbGm
por tus bellas caricias
 BbC
eres tu mi alegría.

 BbF
 Pido que no me falles
 CDm
que nunca te me vayas
 BbGm
y que nunca te olvides
 BbC
que soy yo quien te ama.

 BbCBb
 Que soy yo quien te espera
 CDm
que soy yo quien te llora
 BbGm
que soy yo quien te anhela
 BbC
los minutos y horas.

 BbCF
  Me muero por besarte  
 CDm
  dormirme en tu boca
 BbGmBb
  me muero por decirte  
 GmBbC
  que el mundo se equivoca.
 BbCF
  Me muero por besarte  
 CDm
  dormirme en tu boca
 BbGmBb
  me muero por decirte
 GmBbCBbC
  que el mundo se equivoca, que se equivoca      
 F
  que se equivoca.

 FCDm
6--------------------------------8h10h8---------------|
5--------------8----8h10vr---------------10-10vr8-----|
4--10--10--10----10--------10-10-------------------10-|
3--10--10--10-----------------------------------------|
2--8---8---8------------------------------------------|
1-----------------------------------------------------|


 BbGmBbCBb
 F
Pido por tu ausencia
 CDm
que me hace extrañarte
 BbGm
que me hace soñarte
 BbC
cuando más me haces falta.

 BbF
 Pido por la mañana
 CDm
que a mi lado despiertas
 BbGm
enredado en la cama
 BbC
ay como me haces falta

 BbCBb
 Que soy yo quien te espera
 CDm
que soy yo quien te llora
 BbGm
que soy yo quien te anhela
 BbC
los minutos y horas.

 BbCF
  Me muero por besarte  
 CDm
  dormirme en tu boca
 BbGmBb
  me muero por decirte  
 GmBbC
  que el mundo se equivoca.
 BbCF
  Me muero por besarte  
 CDm
  dormirme en tu boca
 BbGmBb
  me muero por decirte
 GmBbCBbC
  que el mundo se equivoca, que se equivoca      
 F
  que se equivoca.

 BbCFCDmBbGmBbGmCBb
 BbCF
  Me muero por besarte  
 CDm
  dormirme en tu boca
 BbGmBb
  me muero por decirte
 GmBbCBbC
  que el mundo se equivoca, que se equivoca       
 F
  que se equivoca.

by Acexavi@hotmail.com


Bb C Dm F Gm
variations - click chord images
Transpose chords:
Tuning:
Cool service:
View: Size:
A  A  A
Rating:
Layout:
  • Currently 0/5 Stars.
  • 1
  • 2
  • 3
  • 4
  • 5
 
Accuracy:
  • Currently 0/5 Stars.
  • 1
  • 2
  • 3
  • 4
  • 5
 
click stars to rate
Chordie recommends:
Learn how to play guitar at JamPlay.com
Songbook:
Login to add this song to your songbook
Support the artist
Preview/buy this song
MSN Music
Why this non-profit ad?

 
login to add comments/video/corrections