Guitar Tabs, Chords and Lyrics


Tambour Et Soleil  La Souris Deglinguee

On m'a parlé de ton pa[E]ys[B] co[E]mme d'une sorte [B]de jardin fleu[G#m]ri
Où même les filles les plus jo[C#m]lies,[B] elles savent se servir d'un fus[E]il[B]   [E]
Moitié en Sarong, moitié en Tre[E]il[B]lis[E], là bas au [B]sud est de l'A[G#m]sie
Oui même les filles les plus j[C#m]olies[B], elles savent se servir d'un fus[E]il[B]   [E]


Refrain:
Rouge, blanc et bleu, tambour et so[E]le[B]il [E]
Sont les cou[B]leurs de Kawthoo[G#m]lei
Rouge, blanc et bleu, tambour et sol[C#m]eil      [B]
Sont les couleurs de Kawthoo[E]le[B]i  [E]


Solo:
e|--------------------------------------4h7-4h7-4h7-4-7-4----------------|
B|-------5--7--5h7--5--------------------------------------7--5--7--7h9--|
G|--4/6----------------6--4--4h6-----------------------------------------|
D|-----------------------------------------------------------------------|
A|-----------------------------------------------------------------------|
E|-----------------------------------------------------------------------|
e|---------------------------------------|
B|--------------5--9--7--5-----5---------|
G|---------4/6--------------6-----6------|
D|---------------------------------------|
A|---------------------------------------|
E|---------------------------------------|
e|-------------------------------------------------------------|
B|------x--x--7--5--7--5-----5---------------9--9--7--5-----5--|
G|------------------------6------------------------------6-----|
D|-------------------------------------------------------------|
A|-------------------------------------------------------------|
E|-------------------------------------------------------------|



Mauvaises nouvelles, message radio, Le Slor contrôle tout Manerplaw
Bataille perdue pour la guérilla, Des soldats du général Bo Mya
Derrière toi la colline du Chien Devant toi l'avenir incertain
Mais tant que coulera la Nam Moeï Dans ton combat tu ne seras pas seul

Rouge, blanc et bleu, tambour et soleil
Sont les couleurs de Kawthoolei
Rouge, blanc et bleu, tambour et soleil
Sont les couleurs de Kawthoolei
Sont les couleurs de Kawthoolei
Sont les couleurs de Kawthoolei

Important: The song above is NOT stored on the Chordie server. The original song is hosted at www.guitaretab.com. Chordie works as a search engine and provides on-the-fly formatting. Chordie does not index songs against artists'/composers' will. To remove this song please click here.

Text color:
Chord color:
Chord grids: 
Font size:    
Page size: 

B C#m E G#m
variations - click chord images

Login - add to songbook

Transpose chords

Tuning

Rating click stars to rate

Layout
Accuracy

SHARE PAGE  




You need to log in to post comments