Chordie logo

My Delirium  Ladyhawke

e|---------------------------------------------------------------------------|


B|---------------------------------------------------------------------------|


G|---------------------------------------------------------------------------|


D|------7-------7-------7-------7---------5--7----5--7--7--5-----------------|


A|----7---7---7---7---7---7---7---7------------------------------------------|


E|--5-------5-------5-------5----------5--------5----------------------------|





e|---------------------------------------------------------------------------|


B|--101010101010101013-13-13-13-13-13-13-13-15-15-15-15-15-15-15-15----------|


G|--x-x-x-x-x-x-x-x-x--x--x--x--x--x--x--x--x--x--x--x--x--x--x--x----------|


D|--7-7-7-7-7-7-7-7-10-10-10-10-10-10-10-10-12-12-12-12-12-12-12-12----------|


A|---------------------------------------------------------------------------|


E|---------------------------------------------------------------------------|




[A]Late night, waiting by the phone
F (guitar) D|-7-5-3
Tonight waiting for an answer
[A]Heartbeat drumming double time
I need one more chance to be [F]near you

[F]Still hanging on [G](for what)
[F]Can`t operate (f[G]ired up)
[F]I won`t eat eat and i sleep for you [A]yeah
[F]No rest till i (ge[G]t through)
[F]Coz i`m holding out ([G]for you)
[F]Am i the only one who`s [A]insane

little interlude bit

e|---5--3-5-3--5-3-5-3----------------------------------|
B|---5--3-5-3--5-3-5-3----------------------------------|
G|---5---------5----------------------------------------|
D|------------------------------------------------------|
A|---------------------------------------5-5-5-5-3-3-3-3|
E|-----------------------5-5-5-5-5-5-5-5----------------|
e|------------------------------------------------------|
B|------------------------------------------------------|
G|------------------------------------------------------|
D|---------------------------------5-7----5-7-7-5-------|
A|------------------------------------------------------|
E|1-1-1-1-1-1-1-1-3-3-3-3-3-3-3-3------5----------5-----|


etc

keyboard ending bit


e|--20-17-19-17-20-17-19-17-20-19-17--------------------|
B|-----------------------------------20-18-17-----------|
G|------------------------------------------------------|
D|------------------------------------------------------|
A|------------------------------------------------------|
E|------------------------------------------------------|



Important: The song above is NOT stored on the Chordie server. The original song is hosted at www.guitaretab.com. Chordie works as a search engine and provides on-the-fly formatting. Chordie does not index songs against artists/composers will. To remove this song please click here.

A F G
variations - click chord images

Login - add to songbook

Transpose chords

Tuning

Rating click stars to rate

Layout
Accuracy

SHARE PAGE  

You need to log in to post comments