Untitled

Lagwagon

E---------------------------------------|

B---------------------------------------|
G-----------5---5-----------3---5-------|
D---3---3---5---5---7---7---3---5---3---|
A---3---3---3---3---7---7---1---3---3---|
E---1---1-----------5---5-----------1---|
 FFCCAABbCF
Verse:
E------------------------------------|
B------------------------------------|
G---3-------3-------3---6--------5---|
D---3---3---3---3---3---6---3----5---|
A---1---3---1---3---1---4---3----3---|
E-------1-------1-----------1--------|

 BbFBbFBbC#FC
Chorus:
(Play this 3x)
E-------------------        ---------------|
B-------------------        ---------------|
G---3---5-------7---        ---3---5-------|
D---3---5---7---7--- (then) ---3---5---3---|
A---1---3---7---5---        ---1---3---3---|
E-----------5-------        -----------1---|

 BbCADBbCF
Solo: (h-hammer on)
E------------7--------------7-7--|
B--------6-8---6--------6-8------|
G------5--------------5----------|
D--5h7------------5h7------------|
A--------------------------------|
E--------------------------------|


Riff played during last chorus repeat:
E------------------------6-5-3-------------------6-5-3-------|
B-------6----6-5---6-5-4-------6-5---6-5---6-5-4-------6-5---|
G-----5----5-----6-----------------5-----6-----------------5-|
D-5h7--------------------------------------------------------|
A------------------------------------------------------------|
E------------------------------------------------------------|


Lyrics:
I can see what's meant to be has happened to us, too. Maybe
I enjoy being screwed. But I will not be missing you, and
missing all the time you've wasted.
On a couch, you share with someone else, and you tell me
don't believe that's all I am. There's no proof, I am not
insane, I wanna thank you. For all the pain, it's a goodbye.
But how can I just write it off as feelings you deny, when
you've wasted
All my time, looking for your life. You weren't there, when
I was here. There's no proof. . . .

That's it! Please send me any and all requests, comments, changes, or
anything else. Thanks.

Luke


A Bb C C# D F
variations - click chord images
Transpose chords:
Tuning:
Cool service:
View: Size:
A  A  A
Rating:
Layout:
  • Currently 3/5 Stars.
  • 1
  • 2
  • 3
  • 4
  • 5
 
Accuracy:
  • Currently 3/5 Stars.
  • 1
  • 2
  • 3
  • 4
  • 5
 
click stars to rate
Chordie recommends:
Learn how to play guitar at JamPlay.com
Songbook:
Login to add this song to your songbook
Support the artist
Preview/buy this song
MSN Music
Why this non-profit ad?

 
login to add comments/video/corrections