Chordie logo


E Dagger   Lagwagon



E DAGGER by Lagwagon. Album: Blaze
This the first Lagwagon song I heard. Off an Atticus CD no less!
A=right guitar B=left guitar C=extra guitar

E------------------------%%%%--------------------------|
B------------------------%%%%----------------------*---|
G----*-----------#---#--5%%%%--*-----------#---#--5----|
D---5----*---#--3---5---5%%%%-5----*---#--3---5---5----|
A---3---3---6---1---3---3%%%%-3---3---6---1---3---3----|
E-------1---4------------%%%%-----1---4----------------|
:

E-----------------------|
B----*---------------*--|
G---5----*---#---#--5---|
D---5---7---6---8---5---|
A---3---7---6---8---3---|
E-------5---4---6-------|
:

E----------------------------%%|
B----------------------------%%|
G-----------5--------*----#--%%|
D---3---5---5---2---3----5--5%%|
A---3---5---3---2---3----5--5%%|
E---1---3-------0---1----3--3%%|

E--------------------#--#----%%|
B---------------5--10--9-----%%|
G-----------5---4--10-10--#--%%|
D---3---5---5---2--10-10-5--5%%|
A---3---5---3---2---8--8-5--5%%|
E---1---3----------------3--3%%|
:

E-----------------------------------------------------|
B----*-----------#---*---#------------------------*---|
G---5----*---#--3---5---5---5-10-9-7--*---#---#--5----|
D---5---3---6---3---5---5---5--x-x-x-7---6---8---5----|
A---3---3---6---1---3---3---3--8-7-5-7---6---8---3----|
E-------1---4------------------------5---4---6--------|
:

E-/-----|p.m.|----\----------%%|
B----------------------------%%|
G------------#-------*----#--%%|
D----#---#--5----#--3----5--5%%|
A---3---5---3---2---3----5--5%%|
E---1---3-------0---1----3--3%%|

E-/-----|p.m.|----\--#--#----%%|
B------------------10--9-----%%|
G------------#---#-10-10--#--%%|
D----#---#--5---9--10-10-5--5%%|
A---3---5---3---7---8--8-5--5%%|
E---1---3----------------3--3%%|
:

E--------------------------------------%---------|
B--------*---*-------#------------*---#%------*--|
G-------5---7----*--5--XXX-XXXX--5---7-%--*--5---|
D---3---5---7---3---5--XXX-XXXX--5---7-%-3---5---|
A---3---3---5---3---3--XXX-XXXX--3---5-%-3---3---|
E---1-----------1----------------------%-1-------|
:

E---------------------------------------|
B----*---*-------*---*---*--------------|
G---5---7----*--5---5---7-----------5---|
D---5---7---3---5---5---7---3---5---5---|
A---3---5---3---3---3---5---3---5---3---|
E-----------1---------------1---3-------|

E---8/15-15~-17\14-14~-15\13-13~-13\12-12~->
B------------------------------------------>
G------------------------------------------>
D------------------------------------------>
A------------------------------------------>
E------------------------------------------>
outroC
-8/15-15~-17\14-14~-15\13-13~-12-10-8-7-8~-|
-------------------------------------------|
-------------------------------------------|
-------------------------------------------|
-------------------------------------------|
-------------------------------------------|
:
Then do some random stuff and end on last chord of outroA&B
:
Now go party!
Tab by Brian B. (2006)


Important: The song above is NOT stored on the Chordie server. The original song is hosted at www.guitaretab.com. Chordie works as a search engine and provides on-the-fly formatting. Chordie does not index songs against artists/composers will. To remove this song please click here.

This song is displayed as text-only. Transposing and tuning is only available for chordpro-songs.

Login - add to songbook

Rating click stars to rate

Layout
Accuracy

SHARE PAGE  




You need to log in to post comments