Du Gamla Fria Nord

Lars WinnerbäCk

 GDEmC
e|-----3---------|------2--------|-------------0-|---------------|
B|-----3---------|------3--------|-------------0-|---------------|
G|-----0---------|------2--------|-------------0-|---------------|
D|---------------|--0---0--------|-------------2-|----0h2--------|
A|---------------|---------------|--------0h2--2-|--3------------|
E|3--------------|---------------|-0-------------|---------------|

 GDEmC
|-----3---------|------2h3------|----------0----|---------------|
|-----3---------|------3--------|----------0----|---------------|
|-----0---------|------2--------|----------0----|---------------|
|---------------|--0---0--------|----------2----|----0h2--------|
|---------------|---------------|----------2----|--3------------|
|3--------------|---------------|-0-------------|---------------|


(Verse)
 GDEmC
|-----3---------|------2--------|----------0----|---------------|
|-----3---------|------3--------|----------0----|---------------|
|-----0---------|------2--------|----------0----|---------------|
|---------------|--0---0--------|----------2----|----0h2--------|
|---------------|---------------|----------2----|--3------------|
|3--------------|---------------|-0-------------|---------------|

De tog det sista fyllot på den sista permissionen
 GDEmC
|-----3---------|------2--------|----------0----|---------------|
|-----3---------|------3--------|----------0----|---------------|
|-----0---------|------2--------|----------0----|---------------|
|---------------|--0---0--------|----------2----|------2--------|
|---------------|---------------|----------2----|--3------------|
|3--------------|---------------|-0-------------|---------------|

de beslagtog en sista ägodel och släpade ho.. ner till stationen..
 GDEmC
|-----3---------|------2--------|----------0----|---------------|
|-----3---------|------3--------|----------0----|---------------|
|-----0---------|------2--------|----------0----|---------------|
|---------------|--0---0--------|----------2----|----0h2--------|
|---------------|---------------|----------2----|--3------------|
|3--------------|---------------|-0-------------|---------------|

 GDEmC
|-----3---------|------2--------|----------0----|-0--0--0--0----|
|-----3---------|------3--------|----------0----|-1--1--1--1----|
|-----0---------|------2--------|----------0----|-0--0--0--0----|
|---------------|--0---0--------|----------2----|-2--2--2--2----|
|---------------|---------------|----------2----|-3--3--3--3----|
|3--------------|---------------|-0-------------|---------------|

och dom såg.. men dom såg ingenting

(Chorus)
 GDEmC
 Du gamla fria nord, här på bästa sändningstid får vi ett välserverat
styckmord
 GDEm
 varför inte stänga av solen fort, för vi lever inte länge nog för att...
 CG
   rätta till allting dom gjort mot dig

 DEm
|------2h3------|-------0-------|
|------3--------|-------0-------|
|------2--------|-------0-------|
|--0---0--------|-------2-------|
|---------------|-------2-------|
|---------------|--0------------|


 CG
   rätta till allting dom gjort mot dig

The rest of the song is played in the same manner but with a second guitar playing the
together with the normal picking pattern. Good luck, listen to the song for timing! if
need me, contact me on filipstrom@gmail.com






C D Em G
variations - click chord images
Transpose chords:
Tuning:
Cool service:
View: Size:
A  A  A
Rating:
Layout:
  • Currently 3.2/5 Stars.
  • 1
  • 2
  • 3
  • 4
  • 5
 
Accuracy:
  • Currently 3.1/5 Stars.
  • 1
  • 2
  • 3
  • 4
  • 5
 
click stars to rate
Chordie recommends:
Learn how to play guitar at JamPlay.com
Songbook:
Login to add this song to your songbook
Support the artist
Preview/buy this song
MSN Music
Why this non-profit ad?

 
login to add comments/video/corrections