Chordie logo

Space And The Woods   Late Of The Pier



Main Bass Riff:
e|--------------------------------------------------------------------------|
B|--------------------------------------------------------------------------|
G|--------------------------------------------------------------------------|
D|----------------------------------5---------------------------------------|
A|-7-7-7-7-7-7-7-7-4-5-4----5-4---------------------------------------------|
E|----------------------5-0-----5-0-----------------------------------------|

Synth Riff:
e|--------------------------------------------------------------------------|
B|-12-12-12---------10-10-10-------10-10-10---------10-10-10----------------|
G|----------12-11-9----------12-11----------12-11-9----------12-11----------|
D|--------------------------------------------------------------------------|
A|--------------------------------------------------------------------------|
E|--------------------------------------------------------------------------|

This bit is great whoever did this, but it's not the whole thing. Then it goes

e|--------------------------------------------------------------------------|
B|--------------------------------------------------------------------------|
G|--------------------------------------------------------------------------|
D|--------------------------------------5-4-5-4-----------------------------|
A|--7-7-7-7-6-7-6-7-6-5-4-5-4-----------------------------------------------|
E|----------------------------5---3-3-3-------------------------------------|
"I'm shit hot so say what you think about me...."


That is quite fast. Then




e|--------------------------------------------------------------------------|
B|--------------------------------------------------------------------------|
G|--9---7--14--12-----------------------------------------------------------|
D|--------------------------------------------------------------------------|
A|--7---5--12--10-----------------------------------------------------------|
E|--------------------------------------------------------------------------|
I've done nothing, but they forgive anything...

End riff:
e|--------------------------------------------------------------------------|
B|--12--12--12--12--5-5-5-5--15--15--15--15--13-13-12-10-12----------------|
G|-------------------------------------------------------------------------|
D|--------------------------------------------------------------------------|
A|--------------------------------------------------------------------------|
E|--------------------------------------------------------------------------|


And that is that pretty much. Not 100%, but close enough I feel!

Thanks to whoever did the first version though! Spot on!




Important: The song above is NOT stored on the Chordie server. The original song is hosted at www.guitaretab.com. Chordie works as a search engine and provides on-the-fly formatting. Chordie does not index songs against artists/composers will. To remove this song please click here.

This song is displayed as text-only. Transposing and tuning is only available for chordpro-songs.

Login - add to songbook

Rating click stars to rate

Layout
Accuracy

SHARE PAGE  

You need to log in to post comments